» » »

Stellar Kart - Hold On Tabs

Artists:  A B C D E F G H I J K L M N O P Q R S T U V W X Y Z # 

Hold On Tabs

(ver. 1) Click to play this song!
Stellar Kart
 Rating:
4/5 (6 votes)

 Hold On lessons Tabs too difficult? Try these video lessons and learn fast
 
                Tuning: Standard   (oh yes!! no retuning my guitar ;))



[Intro]

E||--------------------------------------------------------------------------|
B||--------------------------------------------------------------------------|
G||--------------------------------------------------------------------------|
D||--8--7-----8--7-----8--7-----8--7-----8--8--8--8--8--8--8--8--8--8--8--8--|
A||--------8--------8--------8--------8--8--8--8--8--8--8--8--8--8--8--8--8--|
E||--------------------------------------6--6--6--6--6--6--6--6--6--6--6--6--|


----------------------------------------|----------------------------------|
----------------------------------------|----------------------------------|
----------------------------------------|----------------------------------|
--8--8--8--8----5--5--5--5--5--5--5--5--|--5--5--5--5--5--5--5--5-/-8-ring-|
--8--8--8--8----5--5--5--5--5--5--5--5--|--5--5--5--5--5--5--5--5-/-8------|
--6--6--6--6----3--3--3--3--3--3--3--3--|--3--3--3--3--3--3--3--3-/-6------|


[Verse]
--------------------------------------------------|
--------------------------------------------------|
--------------------------------------------------|
--8--8--8--8--8--8--8--8--8--8--8--8--8--8--8--8--|
--8--8--8--8--8--8--8--8--8--8--8--8--8--8--8--8--|
--6--6--6--6--6--6--6--6--6--6--6--6--6--6--6--6--|
  .  .  .  .  .  .  .  .  .  .  .  .  .  .  .  .
--------------------------------------------------------------------------|
--------------------------------------------------------------------------|
--------------------------------------------------------------------------|
--5--5--5--5--5--5--5--5--5--5--5--5--5--5--5--5--3--3--3--3--3--3--3--3--|
--5--5--5--5--5--5--5--5--5--5--5--5--5--5--5--5--3--3--3--3--3--3--3--3--|
--3--3--3--3--3--3--3--3--3--3--3--3--3--3--3--3--1--1--1--1--1--1--1--1--|
  .  .  .  .  .  .  .  .  .  .  .  .  .  .  .  .  .  .  .  .  .  .  .  .

----------------------------------------------------------------------------------|
----------------------------------------------------------------------------------|
--------------------------8--8--8--8--8--8--8--8--10--10--10--10--10--10--10--10--|
--3--3--3--3--3--3--3--3--8--8--8--8--8--8--8--8--10--10--10--10--10--10--10--10--|
--3--3--3--3--3--3--3--3--6--6--6--6--6--6--6--6---8---8---8---8---8---8---8---8--|
--1--1--1--1--1--1--1--1--6--6--6--6--6--6--6--6---8---8---8---8---8---8---8---8--|
  .  .  .  .  .  .  .  .  .  .  .  .  .  .  .  .   .   .   .   .   .   .   .

[refrain]

--------------------------------------------------------------------------|
--------------------------------------------------------------------------|
--------------------------------------------------8--8--8--8--8--8--8--8--|
--8--8--8--8--8--8--8--8--8--8--8--8--8--8--8--8--8--8--8--8--8--8--8--8--|
--8--8--8--8--8--8--8--8--8--8--8--8--8--8--8--8--6--6--6--6--6--6--6--6--|
--6--6--6--6--6--6--6--6--6--6--6--6--6--6--6--6--6--6--6--6--6--6--6--6--|


----------------------------------------------------------------------------------|
----------------------------------------------------------------------------------|
--8--8--8--8--8--8--8--8--3--3--3--3--3--3--3--3--3--3--3--3--3--3--3--3----------|
--8--8--8--8--8--8--8--8--1--1--1--1--1--1--1--1--1--1--1--1--1--1--1--1----------|
--6--6--6--6--6--6--6--6--1--1--1--1--1--1--1--1--1--1--1--1--1--1--1--1----------|
--6--6--6--6--6--6--6--6--|--------------------------|----------------------------|

------------------------------------------------------||
------------------------------------------------------||
------------------------------------------------------||
--3--3--3--3--3--3--3--3--3--3--3--3--3--3--3--3-/-8--||
--3--3--3--3--3--3--3--3--3--3--3--3--3--3--3--3-/-8--||
--1--1--1--1--1--1--1--1--1--1--1--1--1--1--1--1-/-6--||


listen to the song and try to figure out the few variations later in the song.
this is my very first tab and i hope you enjoy it. if so i'm glad. but if you think it 
be honest, throw this tab away and try it yourself.
have fun playin this song. bye
            
Submit corrections


        Hold On lessons Hard to play? Try these video lessons and learn fast Hold On lessons
        
↑ Back to top | Tablatures and chords for acoustic guitar and electric guitar, ukulele, drums are parodies/interpretations of the original songs. You may use it for private study, scholarship, research or language learning purposes only