Home » S » Stealers Wheel »

Stealers Wheel - Stuck In The Middle With You Tabs

Artists:  A B C D E F G H I J K L M N O P Q R S T U V W X Y Z # 

Stuck In The Middle With You Tabs

(ver. 3) Click to play this song!
Stealers Wheel
 Rating:
4/5 (4 votes)
                -------------------------------------------------------------------------------
                             STUCK IN THE MIDDLE WITH YOU - Stealers Wheel
-------------------------------------------------------------------------------

I am making this tab because everyone so far has it wrong.  Even the how-to videos on 
song correctly.

Tuning: Standard

INTRO:
e|-2-2-0-0-2-----|
B|-3-3-1-0-1-----|
G|-2-2-0-0-2-----|  X2
D|-----2-2-------|
A|-----0-0-------|
E|---------------|

Chords used:

    D   G7   A7  C   G A7sus4
e|---2---1---0---0---3---3------|
B|---3---0---2---1---0---3------|
G|---2---0---0---0---0---0------|
D|---0---0---2---2---0---2------|
A|---0---2---0---3---2---0------|
E|-------3-----------3----------|

D
Well, I don't know why I came here tonight.
D
I got a feeling that something ain't right.
G7
I'm so scared in case I fall off my chair.
D
and I'm wondering how I'll get down those stairs.
A7                     C            G          D
Clowns to left of me, jokers to the right, here am I stuck in the middle with you.

           G                                                                 D
Well, you started off with nothing and you're proud that you're a self-made man.
           G                                                              D    A7sus4
And your friends they all come crawling, slap you on the back and say, please, please.


Slide Guitar Fills:

e|----------5----------5---------------------10-------10--------------10----------|
B|-6/7-6/7----6/7/6/7----6/7----11/12-11/12----11/12----12-----11/12----12--------|
G|-6/7-6/7----6/7/6/7----6/7----11/12-11/12----11/12-------12--11/12-------12-----|
D|--------------------------------------------------------------------------------|
A|--------------------------------------------------------------------------------|
E|--------------------------------------------------------------------------------|

e|--------12-------12-------10---------10--------|
B|-13/14-----13/14----11/12-----11/12-----12-----|
G|-13/14-----13/14----11/12-----11/12-----12-----|
D|-----------------------------------------------|
A|-----------------------------------------------|
E|-----------------------------------------------|


************************************

| /   slide up
| \   slide down
| h   hammer-on
| p   pull-off
| ~   vibrato
| +   harmonic
| x   Mute note
| b   Bend
| pb  Pre-bend
| br  Bend release
| pbr Pre-bend release
| brb Bend release bend

************************************
            
Submit corrections

↑ Back to top | Tablatures and chords for acoustic guitar and electric guitar, ukulele, drums are parodies/interpretations of the original songs. You may use it for private study, scholarship, research or language learning purposes only