» » »

Static - X - This Is Not Tabs

Artists:  A B C D E F G H I J K L M N O P Q R S T U V W X Y Z # 

This Is Not Tabs

(ver. 2) Click to play this song!
Static - X
 Rating:
4/5 (4 votes)

 This Is Not lessons Tabs too difficult? Try these video lessons and learn fast
 
                Dif.: 9

NOTE: This song like all the other Static X songs is tuned down one whole step then drop the low D one more step to C making the whole thing in drop C = C G C F A D

Intro (Synth. arranged for guitar 2)
d|-8-8-8-8-10/11-8-8-8-8-10/11-8-8-8-8-|--3x--|-8-8-8-8-10/11-8-8-8-8-8-8-8-8-8-|
a|-------------------------------------|------|---------------------------------|

Fill 1 (Synth. arranged for guitar 2) (“This is not....”)
d|-8-8-8-8-10/11-8-8-8-8-10/11-8-8-8-8-|--3x--|-8-8-8-8-8-8-8-8-8-8-8-8-8-8-8-8-|
a|-------------------------------------|------|---------------------------------|

Intro 2 (Guitar 1 w/heavy ass distortion)
G|-------------------------|----|----------------------6-------------------------|
C|-6p0---0--6p0----0--6p0--|-3x-|-6p0----0--6p0----0---6---0---0--6p0--0----6p0--|

Intro 2 (Cont.)
G|----------------------------------------------------6--|
C|--6p0----0--6p0----0--6p0-----6p0----0---6p0----0---6--|

Verse (“Lines and the light...)
G|--------------------|-----|-----|----------------------6--|
C|-3p0----0--3p0---0--|--%--|--%--|--3p0----0--3p0----0--6--|

Fill 2 (Instead of last bar on repeat on Verse do this) (“Alive..)
G|----------------------------|
C|-3p0-----0--3p0---0--0--0---|
                       PM---|

Pre-Chorus (“Dazed and burning...)
G|--------------------------|----|---------------------6--|
C|-3p0----0--3p0---0--0--0--|-3x-|-3p0----0--3p0---0---6--|
                      pm--|

Pre-Chorus (cont.)
G|--------------------|----|--------------------0--0--|
C|-3p0---0--3p0----0--|-3x-|-3p0----0--3p0---0--0--0--|
						                    pm---|

Chorus (“This is not my...”)
G|-7--6---------------------------|---|---|---|
C|-7--6---------------------------|-%-|-%-|-%-|

Chorus Part 2 (Guitar 1) (After says “I hate this..”)
G|-7--6--X--X--X--X--X--X--|---|---|---|
C|-7--6--X--X--X--X--X--X--|-%-|-%-|-%-|

Chorus Part 2 (Guitar 2)
d|-------------------------------------------------------|
a|-----12-12-12-12-12-12--|-%-|-%-|-12-12-13p12-12-12-12-|

Post-Chorus
G|---------------------|---|---|------------------6--|
C|-6p0---0--6p0-0--6p0-|-%-|-%-|-6p0--0--6p0--0---6--|

Riff 1 (After 2nd Post Chorus) (Guitar 2)
d|------------------------------|
a|----12--12--13p12-12--12--12--|

Breakdown  (Guitar 2)
(This is where in the music video where Tripp does that awesome thing with his guitar)
d|-8-8-8-8-10/11-8-8-8-8-10/11-8-8-8-8-|-%-|-%-|
a|-------------------------------------|---|---|

Breakdown (cont.) (Guitar 2)
d|--8\\\\\\\\\\\\\\\\\\\\\--|
a|--------------------------|
     ^ tremelo pick really fast while gradually sliding down

Interlude
G|-------------------------------6--|-------------------------------5--|
C|-3p0------0----3p0--------0----6--|-3p0------0----3p0--------0----6--|

Interlude (cont.)
G|-------------------------------6--|------------------------------------------|
C|-3p0------0----3p0--------0----6--|-3p0------0----3p0-----0----0----0----0---|
					^ this bar 4x                                pm-------|

Last Chorus
G|--7----6------------------------------| 4x
C|--7----6------------------------------|

Last Chorus (cont.)
G|-7----6----X----X----X----X----X----X----| 4x
C|-7----6----X----X----X----X----X----X----|

Outro Chorus
G|-----------------------|---|---|--------------------6--|
C|-6p0--0--6p0---0--6p0--|-%-|-%-|-6p0---0--6p0---0---6--|

Riff 2 (On last repeat of Outro Chorus)
G|----------------------------------------6----|
C|--6p0-------0-------6p0---------0-------6----|

End
G|--6\\\\\\\\\\\\\\\\\\\\--------|
C|--6\\\\\\\\\\\\\\\\\\\\\-------|

Structure: -
Intro (Guitar 2)
Fill 1 (Guitar 2)
Intro 2 (Guitar 1)
Verse (Guitar 1)
Pre-Chorus (Guitar 1)
Chorus (Guitar 1)
Chorus Part 2 (Guitar 1)/Chorus Part 2 (Guitar 2)
Post Chorus (Guitar 1)
Verse (Guitar 1)
Pre-Chorus (Guitar 1)
Chorus (Guitar 1)
Chorus Part 2 (Guitar 1)/Chorus Part 2 (Guitar 2)
Post Chorus (Guitar 1)
Riff 1 (Guitar 2)
Breakdown (Guitar 2)
Interlude (Guitar 1)
Last Chorus (Guitar 1)
Outro Chorus (Guitar 1)
End (Guitar 1)

Ok.... Ok..... That one’s real easy just like all Static X songs.. And I just want to let you all know that I mentioned Tripp Eisen was not playing Guitar for this song it was just Wayne because Koichi ***ing left the band right before recording, so I mentioned Tripp because he’s the new guitarist for Static X and I wanted to give him props cause he’s ***ing awesome and I loved the work he did with Dope on their last album and I wish him the best of luck for him in Static X and I know you don’t really ***ing care about this but you know what I do... I take a lot of time and effort to do this *** for you and I’m gonna write whatever the *** I want alright... Alright!! :-)
            
Submit corrections


        This Is Not lessons Hard to play? Try these video lessons and learn fast This Is Not lessons
        
↑ Back to top | Tablatures and chords for acoustic guitar and electric guitar, ukulele, drums are parodies/interpretations of the original songs. You may use it for private study, scholarship, research or language learning purposes only