» » »

Static - X - Push It Tabs

Artists:  A B C D E F G H I J K L M N O P Q R S T U V W X Y Z # 

Push It Tabs

(ver. 1) Click to play this song!
Static - X
 Rating:
4/5 (4 votes)

 Push It lessons Tabs too difficult? Try these video lessons and learn fast
 
                                              Push It – Static-X


. = Palm mute
^ = Bend

Tuning: Drop D down 1 step (C G C F A D)

Intro:    8x|
|-----------|
|-----------|
|--8---8----|
|--x---x----|
|--6---6----|
|----0---0--|

Pre-Verse:
|               7x|
|-----------------|-----------|
|-----------------|-----------|
|-----------------|--8---8----|
|--0-0-3-0-0-0-3--|--x---x----|
|--0-0-3-0-0-0-3--|--6---6----|
|--0-0-3-0-0-0-3--|----0---0--|

Verse:          8x|
|-----------------|
|-----------------|
|-----------------|
|--0-0-3-0-0-0-3--|
|--0-0-3-0-0-0-3--|
|--0-0-3-0-0-0-3--|

Chorus:
|               4x|               4x|
|-----------------|-----------------|
|-----------------|-----------------|
|-----------------|-----------------|
|--0-0-3-0-0-0-3--|--3-0-0-3-0-0-3--|
|--0-0-3-0-0-0-3--|--3-0-0-3-0-0-3--|
|--0-0-3-0-0-0-3--|--3-0-0-3-0-0-3--|

Verse:          8x|
|-----------------|
|-----------------|
|-----------------|
|--0-0-3-0-0-0-3--|
|--0-0-3-0-0-0-3--|
|--0-0-3-0-0-0-3--|

Chorus:
|               4x|               3x|
|-----------------|-----------------|-----------------|
|-----------------|-----------------|-----------------|
|-----------------|-----------------|--4-----4-----4--|
|--0-0-3-0-0-0-3--|--3-0-0-3-0-0-3--|--3-0-0-3-0-0-3--|
|--0-0-3-0-0-0-3--|--3-0-0-3-0-0-3--|--3-0-0-3-0-0-3--|
|--0-0-3-0-0-0-3--|--3-0-0-3-0-0-3--|--3-0-0-3-0-0-3--|
                                         . .   . . 

Bridge:
|         8x|                 3x|                 |         8x|
|-----------|--------------12^--|-----------------|-----------|
|-----------|-------------------|-----------------|-----------|
|--8---8----|-------------------|-----------------|--8---8----|
|--x---x----|--0-0-3-0-0-0------|--0-0-3-0-0-0-3--|--x---x----|
|--6---6----|--0-0-3-0-0-0------|--0-0-3-0-0-0-3--|--6---6----|
|----0---0--|--0-0-3-0-0-0------|--0-0-3-0-0-0-3--|----0---0--|
               . .   . . .         . .   . . .

Breakdown:
|          |               4x|
|----------|-----------------|----------|
|----------|-----------------|----------|
|----------|-----------------|----------|
|--3----1--|--0-0-3-0-0-0-3--|--3----1--|
|--3----1--|--0-0-3-0-0-0-3--|--3----1--|
|--3----1--|--0-0-3-0-0-0-3--|--3----1--|

Chorus:
|               4x|               4x|               4x|               4x|
|-----------------|-----------------|-----------------|-----------------|
|-----------------|-----------------|-----------------|-----------------|
|-----------------|-----------------|-----------------|-----------------|
|--0-0-3-0-0-0-3--|--3-0-0-3-0-0-3--|--0-0-3-0-0-0-3--|--3-0-0-3-0-0-3--|
|--0-0-3-0-0-0-3--|--3-0-0-3-0-0-3--|--0-0-3-0-0-0-3--|--3-0-0-3-0-0-3--|
|--0-0-3-0-0-0-3--|--3-0-0-3-0-0-3--|--0-0-3-0-0-0-3--|--3-0-0-3-0-0-3--|
            
Submit corrections


        Push It lessons Hard to play? Try these video lessons and learn fast Push It lessons
        
↑ Back to top | Tablatures and chords for acoustic guitar and electric guitar, ukulele, drums are parodies/interpretations of the original songs. You may use it for private study, scholarship, research or language learning purposes only