» » »

Static - X - Love Dump Tabs

Artists:  A B C D E F G H I J K L M N O P Q R S T U V W X Y Z # 

Love Dump Tabs

(ver. 2) Click to play this song!
Static - X
 Rating:
4/5 (4 votes)

 Love Dump lessons Tabs too difficult? Try these video lessons and learn fast
 
                "(1)
                            Love Dump – Static-X


. = Palm mute

Tuning: Drop D down 1 step (C G C F A D)

Intro:
|              32x|                 |              15x|
|-----------------|-----------------|-----------------|
|-----------------|-----------------|-----------------|
|-----------------|-----------------|-----------------|
|-----------------|-----------------|-----------------|
|-----------------|------5-5-5-5-5--|--3-3-5-5-5-5-5--|
|--3-3-5-5-5-5-5--|--3-3-5-5-5-5-5--|--3-3-5-5-5-5-5--|
   . . . . . . .     . . . . . . .     . . . . . . .

Pre-Verse:
|                                      4x|
|                4x|strum a lot of times |
|------------------|---------------------|---------------|
|------------------|---------------------|---------------|
|------------------|--13-13-13-13-13-13--|--14-14-14-14--|
|------------------|--x--x--x--x--x--x---|--x--x--x--x---|
|--0-0-0-0-0--0-0--|--11-11-11-11-11-11--|--12-12-12-12--|
|--0-0-0-0-0--0-0--|---------------------|---------------|
   . . . . .  . .  

Verse:
|---------------------------------------------------|(Guitar 1)
|---------------------------------------------------|
|--7--7--7--7--9--9--9--9--10-10-10-10-12-12-12-12--|
|--x--x--x--x--x--x--x--x--x--x--x--x--x--x--x--x---|
|--5--5--5--5--7--7--7--7--8--8--8--8--10-10-10-10--|
|---------------------------------------------------|
|                                                   |
|---------------------------------------------------|(Guitar 2)
|---------------------------------------------------|
|--14-14-14-14-14-14-14-14-15-15-15-15-17-17-17-17--|
|--x--x--x--x--x--x--x--x--x--x--x--x--x--x--x--x---|
|--12-12-12-12-12-12-12-12-13-13-13-13-15-15-15-15--|
|---------------------------------------------------|

Chorus:     4x|
|-------------|
|-------------|
|-------------|
|--0-0-0-0-0--|
|--0-0-0-0-0--|
|--0-0-0-0-0--|

Bridge:
|               4x|                 |               3x|               4x|
|-----------------|-----------------|-----------------|-----------------|
|-----------------|-----------------|-----------------|-----------------|
|-----------------|-----------------|-----------------|-----------------|
|-----------------|-----------------|-----------------|-----------------|
|-----------------|------0-0-0-0-0--|--0-0-0-0-0-0-0--|--3-3-5-5-5-5-5--|
|--3-3-5-5-5-5-5--|--0-0-0-0-0-0-0--|--0-0-0-0-0-0-0--|--3-3-5-5-5-5-5--|
   . . . . . . .     . . . . . . .     . . . . . . .     . . . . . . .

|               4x|               4x|
|-----------------|-----------------|
|-----------------|-----------------|
|-----------------|-----------------|
|-----------------|--3-3-5-5-5-5-5--|
|--0-0-0-0-0-0-0--|--3-3-5-5-5-5-5--|
|--0-0-0-0-0-0-0--|--3-3-5-5-5-5-5--|
   . . . . . . .

Chorus:     4x|
|-------------|
|-------------|
|-------------|
|--0-0-0-0-0--|
|--0-0-0-0-0--|
|--0-0-0-0-0--|

Verse:                                            2x|
|---------------------------------------------------|(Guitar 1)
|---------------------------------------------------|
|--7--7--7--7--9--9--9--9--10-10-10-10-12-12-12-12--|
|--x--x--x--x--x--x--x--x--x--x--x--x--x--x--x--x---|
|--5--5--5--5--7--7--7--7--8--8--8--8--10-10-10-10--|
|---------------------------------------------------|
|                                                 2x|
|---------------------------------------------------|(Guitar 2)
|---------------------------------------------------|
|--14-14-14-14-14-14-14-14-15-15-15-15-17-17-17-17--|
|--x--x--x--x--x--x--x--x--x--x--x--x--x--x--x--x---|
|--12-12-12-12-12-12-12-12-13-13-13-13-15-15-15-15--|
|---------------------------------------------------|

Pre-Verse:
|                                      4x|
|                4x|                     |
|------------------|---------------------|---------------|
|------------------|---------------------|---------------|
|------------------|--13-13-13-13-13-13--|--14-14-14-14--|
|------------------|--x--x--x--x--x--x---|--x--x--x--x---|
|--0-0-0-0-0--0-0--|--11-11-11-11-11-11--|--12-12-12-12--|
|--0-0-0-0-0--0-0--|---------------------|---------------|
   . . . . .  . .     . .

Verse:                                            2x|
|---------------------------------------------------|(Guitar 1)
|---------------------------------------------------|
|--7--7--7--7--9--9--9--9--10-10-10-10-12-12-12-12--|
|--x--x--x--x--x--x--x--x--x--x--x--x--x--x--x--x---|
|--5--5--5--5--7--7--7--7--8--8--8--8--10-10-10-10--|
|---------------------------------------------------|
|                                                 2x|
|---------------------------------------------------|(Guitar 2)
|---------------------------------------------------|
|--14-14-14-14-14-14-14-14-15-15-15-15-17-17-17-17--|
|--x--x--x--x--x--x--x--x--x--x--x--x--x--x--x--x---|
|--12-12-12-12-12-12-12-12-13-13-13-13-15-15-15-15--|
|---------------------------------------------------|

Outro:
|                4x|                     |                2x|
|------------------|---------------------|------------------|-------------|
|------------------|---------------------|------------------|-------------|
|------------------|--13-13-13-13-13-13--|------------------|-------------|
|------------------|--x--x--x--x--x--x---|------------------|-------------|
|--0-0-0-0-0--0-0--|--11-11-11-11-11-11--|--0-0-0-0-0--0-0--|--0-0-0-0-0--|
|--0-0-0-0-0--0-0--|---------------------|--0-0-0-0-0--0-0--|--0-0-0-0-0--|
   . . . . .  . .                           . . . . .  . .     . . . . .
"            
Submit corrections


        Love Dump lessons Hard to play? Try these video lessons and learn fast Love Dump lessons
        
↑ Back to top | Tablatures and chords for acoustic guitar and electric guitar, ukulele, drums are parodies/interpretations of the original songs. You may use it for private study, scholarship, research or language learning purposes only