» » »

Static - X - Kill Your Idols Tabs

Artists:  A B C D E F G H I J K L M N O P Q R S T U V W X Y Z # 

Kill Your Idols Tabs

(ver. 1) Click to play this song!
Static - X
 Rating:
4/5 (4 votes)

 Kill Your Idols lessons Tabs too difficult? Try these video lessons and learn fast
 
                Tuning: CGCFAD

KEY:
.  =  Palm Mute
x  =  Dead Note
^  =  Bend

Intro: 0:12

|-----------------------------------------------------|
|-----------------------------------------------------|
|-----------------------------------------------------|
|-0-0--0-0-0-----0-0--0-0-0---0-0--0-0-0--0-0--0------| X4
|-0-0--0-0-0-----0-0--0-0-0---0-0--0-0-0--0-0--0-0----|
|-0-0--0-0-0-----0-0--0-0-0---0-0--0-0-0--0-0--0-0--1-|
  . .  . . .     . .  . . .   . .  . . .  . .  . .     

|------------------|
|------------------|
|------------------|
|---8------6----9--|
|---x------x----x--|
|---8------6----9--|
   X14   X5    X8

|----------------------------------------------------|
|----------------------------------------------------|
|----------------------------------------------------|
|-0-0--0-0-0---0-0--0-0-0---0-0--0-0-0---0-0--0-0-0--|
|-0-0--0-0-0---0-0--0-0-0---0-0--0-0-0---0-0--0-0-0--|
|-0-0--0-0-0---0-0--0-0-0---0-0--0-0-0---0-0--0-0-0--|
  . .  . . .   . .  . . .   . .  . . .   . .  . . .

|-------------|
|-------------|
|-------------|
|-8---9----6--|
|-x---x----x--|
|-8---9----6--|
 X14  X5   X8


|----------------------------------------------------|
|----------------------------------------------------|
|----------------------------------------------------|
|-0-0--0-0-0---0-0--0-0-0---0-0--0-0-0---0-0--0-0-0--|
|-0-0--0-0-0---0-0--0-0-0---0-0--0-0-0---0-0--0-0-0--|
|-0-0--0-0-0---0-0--0-0-0---0-0--0-0-0---0-0--0-0-0--|
  . .  . . .   . .  . . .   . .  . . .   . .  . . .


|-------------|
|-------------|
|--7---7^-----|
|--x---x------| X 8
|--5---5^-----|
|-------------|
  X12  


|-----------------------------------------------------|
|-----------------------------------------------------|
|-----------------------------------------------------|
|-0-0--0-0-0-----0-0--0-0-0---0-0--0-0-0--0-0--0------| X 8
|-0-0--0-0-0-----0-0--0-0-0---0-0--0-0-0--0-0--0-0----|
|-0-0--0-0-0-----0-0--0-0-0---0-0--0-0-0--0-0--0-0--1-|
  . .  . . .     . .  . . .   . .  . . .  . .  . .  


VERSE: 0:56


|------------------------------|
|------------------------------|
|------------------------------|
|-0-0--0-0-0-----0-0--0-0------| X 7
|-0-0--0-0-0-----0-0--0-0------|
|-0-0--0-0-0-----0-0--0-0-1----|
  . .  . . .     . .  . .   

Verse .02 1:10

|-------------|
|-------------|
|-10\6-\4-/5--|
|-x-\x-\x-/x--|
|-8-\4-\2-/3--|
|-------------|
 X4  X2 X2 X2

|------------------------------|
|------------------------------|
|------------------------------|
|-0-0--0-0-0-----0-0--0-0-0----| 
|-0-0--0-0-0-----0-0--0-0-0----|
|-0-0--0-0-0-----0-0--0-0-0----|
  . .  . . .     . .  . . .

^^^^ 4 Times


Chorus:  1:26

|--------------------------------|
|--------------------------------|
|--------------------------------|
|-8-88-8-8-88--6-66--1-11-1-1-11-|
|-8-88-8-8-88--6-66--1-11-1-1-11-|
|-8-88-8-8-88--6-66--1-11-1-1-11-|
                       ^ are ones not 11s

|--------------------------------|
|--------------------------------|
|--------------------------------|
|-8-88-8-8-88--6-66--9-99-9-9-99-|
|-8-88-8-8-88--6-66--9-99-9-9-99-|
|-8-88-8-8-88--6-66--9-99-9-9-99-|

|--------------------------------|
|--------------------------------|
|--------------------------------|
|-8-88-8-8-88--6-66--1-11-1-1-11-|
|-8-88-8-8-88--6-66--1-11-1-1-11-|
|-8-88-8-8-88--6-66--1-11-1-1-11-|
                       ^ are ones not 11s

|------------------------|
|------------------------|
|------------------------|
|-8-88-8-8-88--9-99--6---|
|-8-88-8-8-88--9-99--6---|
|-8-88-8-8-88--9-99--6---|



VERSE: 1:40


|------------------------------|
|------------------------------|
|------------------------------|
|-0-0--0-0-0-----0-0--0-0------| X 8
|-0-0--0-0-0-----0-0--0-0------|
|-0-0--0-0-0-----0-0--0-0-1----|
  . .  . . .     . .  . .   

|-------------|
|-------------|
|--7---7^-----|
|--x---x------| X 8
|--5---5^-----|
|-------------|
  X12  


Chorus:  2:10

|--------------------------------|
|--------------------------------|
|--------------------------------|
|-8-88-8-8-88--6-66--1-11-1-1-11-|
|-8-88-8-8-88--6-66--1-11-1-1-11-|
|-8-88-8-8-88--6-66--1-11-1-1-11-|
                       ^ are ones not 11s

|--------------------------------|
|--------------------------------|
|--------------------------------|
|-8-88-8-8-88--6-66--9-99-9-9-99-|
|-8-88-8-8-88--6-66--9-99-9-9-99-|
|-8-88-8-8-88--6-66--9-99-9-9-99-|

|--------------------------------|
|--------------------------------|
|--------------------------------|
|-8-88-8-8-88--6-66--1-11-1-1-11-|
|-8-88-8-8-88--6-66--1-11-1-1-11-|
|-8-88-8-8-88--6-66--1-11-1-1-11-|
                       ^ are ones not 11s

|------------------------|
|------------------------|
|------------------------|
|-3-33-3-3-33--5-5/6/8/9-|
|-3-33-3-3-33--5-5/6/8/9-|
|-3-33-3-3-33--5-5/6/8/9-|




Bridge: 2:24
|------------------------------|
|------------------------------|
|------------------------------|
|-0-0--0-0-0-----0-0--0-0-0----|  Play 24 Times
|-0-0--0-0-0-----0-0--0-0-0----|
|-0-0--0-0-0-----0-0--0-0-0----|
  . .  . . .     . .  . . .

Bridge .02  2:54

|----------------------------------------------------|
|----------------------------------------------------|
|----------------------------------------------------|
|-8--6--9-----8---9--6----8---6---9----8-----6---1---|
|-x--x--x-----x---x--x----x---x---x----x-----x---x---|
|-8--6--9-----8---9--6----8---6---9----8-----6---1---|
 X14 X5 X8   X14 X5 X8   X14 X5 X8   X14    X5  X8



Bridge .03  3:09
|------------------------------|
|------------------------------|
|------------------------------|
|-0-0--0-0-0-----0-0--0-0------| X 4
|-0-0--0-0-0-----0-0--0-0------|
|-0-0--0-0-0-----0-0--0-0-1----|
  . .  . . .     . .  . .   

Bridge .04  3:09
|-------------|
|-------------|
|--7---7^-----|
|--x---x------| X 8
|--5---5^-----|
|-------------|
  X12  


Chorus:  3:16

|--------------------------------|
|--------------------------------|
|--------------------------------|
|-8-88-8-8-88--6-66--1-11-1-1-11-|
|-8-88-8-8-88--6-66--1-11-1-1-11-|
|-8-88-8-8-88--6-66--1-11-1-1-11-|
                       ^ are ones not 11s

|--------------------------------|
|--------------------------------|
|--------------------------------|
|-8-88-8-8-88--6-66--9-99-9-9-99-|
|-8-88-8-8-88--6-66--9-99-9-9-99-|
|-8-88-8-8-88--6-66--9-99-9-9-99-|

|--------------------------------|
|--------------------------------|
|--------------------------------|
|-8-88-8-8-88--6-66--1-11-1-1-11-|
|-8-88-8-8-88--6-66--1-11-1-1-11-|
|-8-88-8-8-88--6-66--1-11-1-1-11-|
                       ^ are ones not 11s

|------------------------|
|------------------------|
|------------------------|
|-3-33-3-3-33--5-5/6/8/9-|
|-3-33-3-3-33--5-5/6/8/9-|
|-3-33-3-3-33--5-5/6/8/9-|


Interuption:  3:30

|------------------------------|
|------------------------------|
|------------------------------|
|-0-0--0-0-0-----0-0--0-0------| X 2
|-0-0--0-0-0-----0-0--0-0------|
|-0-0--0-0-0-----0-0--0-0-1----|
  . .  . . .     . .  . 


|-------------|
|-------------|
|--7---7^-----|
|--x---x------| X 2
|--5---5^-----|
|-------------|
  X12  


Chorus:  3:34

|--------------------------------|
|--------------------------------|
|--------------------------------|
|-8-88-8-8-88--6-66--1-11-1-1-11-|
|-8-88-8-8-88--6-66--1-11-1-1-11-|
|-8-88-8-8-88--6-66--1-11-1-1-11-|
                       ^ are ones not 11s

|--------------------------------|
|--------------------------------|
|--------------------------------|
|-8-88-8-8-88--6-66--9-99-9-9-99-|
|-8-88-8-8-88--6-66--9-99-9-9-99-|
|-8-88-8-8-88--6-66--9-99-9-9-99-|

|--------------------------------|
|--------------------------------|
|--------------------------------|
|-8-88-8-8-88--6-66--1-11-1-1-11-|
|-8-88-8-8-88--6-66--1-11-1-1-11-|
|-8-88-8-8-88--6-66--1-11-1-1-11-|
                       ^ are ones not 11s

|------------------------|
|------------------------|
|------------------------|
|-3-33-3-3-33--5-5/6/8/9-|  X 2
|-3-33-3-3-33--5-5/6/8/9-|
|-3-33-3-3-33--5-5/6/8/9-|



End:   3:53
|-----------------------------------------------------|
|-----------------------------------------------------|
|-----------------------------------------------------|
|-0-0--0-0-0-----0-0--0-0-0---0-0--0-0-0--0-0--0-0----| X2
|-0-0--0-0-0-----0-0--0-0-0---0-0--0-0-0--0-0--0-0----|
|-0-0--0-0-0-----0-0--0-0-0---0-0--0-0-0--0-0--0-0----|
  . .  . . .     . .  . . .   . .  . . .  . .  . .
            
Submit corrections


        Kill Your Idols lessons Hard to play? Try these video lessons and learn fast Kill Your Idols lessons
        
↑ Back to top | Tablatures and chords for acoustic guitar and electric guitar, ukulele, drums are parodies/interpretations of the original songs. You may use it for private study, scholarship, research or language learning purposes only