» » »

Static - X - Invincible Tabs

Artists:  A B C D E F G H I J K L M N O P Q R S T U V W X Y Z # 

Invincible Tabs

(ver. 2) Click to play this song!
Static - X
 Rating:
4.3/5 (26 votes)

 Invincible lessons Tabs too difficult? Try these video lessons and learn fast
 
                [Intro]

 Gtr1
D|----------------------------------------------------------------|
A|----------------------------------------------------------------|
F|-------------------0-----0-----0-----0------0-----0-----0-----0-|
C|-----------------0-----0-----0-----0------0-----0-----0-----0---|
G|-5~~6~~-3-2----1-----1-----0-----0------------------------------|
C|------------5---------------------------6-----6-----5-----5-----|

 Gtr2
D|-8~~~~~~3~~~~|
A|-------------|
F|-------------|
C|-------------|
G|-------------|
C|-------------|


[Chorus]

(Rhythm)
D|-------------|
A|-------------|
F|-------------|
C|-8*-7*-6*-5*-|
G|-8*-7*-6*-5*-|
C|-8*-7*-6*-5*-|


[Chorus]

(Lead w/Wah)
D|---|
A|-8-|
F|---|
C|---|
G|---|
C|---|


[Solo]

(Rhythm)
D|----------------------------------|
A|----------------------------------|
F|----------------------------------|
C|0-0-0-0-0-0-0-0-0-0-0-0-0-0-0-0-0-|
G|0-0-0-0-0-0-0-0-0-0-0-0-0-0-0-0-0-|
C|0-0-0-0-0-0-0-0-0-0-0-0-0-0-0-0-0-|


(Lead w/Wah)  VSolo to chorus transition and chorus riffs after this
D|----------16^-|-15-|
A|-------15-----|----|
F|-16-17--------|----|
C|--------------|----|
G|--------------|----|
C|--------------|----|


[Bridge]

D|--------|
A|-11-8---|
F|--------|
C|--------|
G|--------|
C|--------|
            
Submit corrections


        Invincible lessons Hard to play? Try these video lessons and learn fast Invincible lessons
        
↑ Back to top | Tablatures and chords for acoustic guitar and electric guitar, ukulele, drums are parodies/interpretations of the original songs. You may use it for private study, scholarship, research or language learning purposes only