» » »

Static - X - Get To The Gone Tabs

Artists:  A B C D E F G H I J K L M N O P Q R S T U V W X Y Z # 

Get To The Gone Tabs

(ver. 2) Click to play this song!
Static - X
 Rating:
4/5 (4 votes)

 Get To The Gone lessons Tabs too difficult? Try these video lessons and learn fast
 
                STATIC – X       Get to the gone
Machine
THIS TAB IS WRONG,I SHOULD NEVER HAVE TRIED TO TAB SUCH COMPLICATED STUFF AS WAYNE. IM NO GOOD AT TABBIN cr*p GUITARING, BUT I TABBED FUEL BY METALLICA RIGHT, SOLO AND ALL!

Tuning (D,G,D,F,A,D)

Intro/Chorus
:------------------------------------------------
:--------------------------------------------
:--------------------------------------------
:----7--7--7--7--8--8--8--9--9--9--8--7--7---
:----7--7--7--7--8--8--8--9--9--9--8--7--7---
:----5--5--5--5--6--6--6--7--7--7--6--5--5---


Fill:
:-------------------------------------------
:-------------------------------------------
:-------------------------------------------
:-----7--7--8--7---7--8--7---7--8--7---7—--7
:-----7--7--8--7---7--8--7---7--8--7---7---7
:-----5--5--6--5---5--6--5---5--6--5---5---5


Verse:
:----------------------------------------------------------------
:----------------------------------------------------------------
:----------------------------------------------------------------
:------7--7--8--7----------------------------------7--7--8--7----
:------7--7--8--7----------------------------------7--7--8--7----
:------5--5--6--5----------------------------------5--5--6--5----


Fill 2:

:-------------------------------------------------------------------------------
:-------------------------------------------------------------------------------
:-------------------------------------------------------------------------------
:------7-7-7-7-7-7-7-7-7-7-7-7-7-7-7-7-7-7-7-7-7-7-7-7-7-7-7-7-7-7-8-8-9-9-8----
:------7-7-7-7-7-7-7-7-7-7-7-7-7-7-7-7-7-7-7-7-7-7-7-7-7-7-7-7-7-7-8-8-9-9-8----
:------5-5-5-5-5-5-5-5-5-5-5-5-5-5-5-5-5-5-5-5-5-5-5-5-5-5-5-5-5-5-6-6-7-7-6-----


ORDER
Intro x4
Fill x 4
Verse x 2
Fill x 4
Verse x 2
Chorus x 4
Fill x 4
Verse x 2
Chorus x 4
Fill2 
Fill x 2
Fill2
Fill x 2
Keyboards(no guitar)
Fill x 8
            
Submit corrections


        Get To The Gone lessons Hard to play? Try these video lessons and learn fast Get To The Gone lessons
        
↑ Back to top | Tablatures and chords for acoustic guitar and electric guitar, ukulele, drums are parodies/interpretations of the original songs. You may use it for private study, scholarship, research or language learning purposes only