» » »

Static - X - Fix Tabs

Artists:  A B C D E F G H I J K L M N O P Q R S T U V W X Y Z # 

Fix Tabs

(ver. 3) Click to play this song!
Static - X
 Rating:
3/5 (28 votes)

 Fix lessons Tabs too difficult? Try these video lessons and learn fast
 
                Tuning: 6 string CFA#D#GC 

-----------------------------------------------------------------------------------------
                                     INTRO (00:00-00:07)
-----------------------------------------------------------------------------------------

I.  Guitar 1 (w/ dist) 

 C|------------------------------|
 G|------------------------------|
D#|------------------------------| x2
A#|------------------------------|
 F|------------------------------|
 C|-0---0--------0--0---0--------|
   
    Guitar 2 (w/ dist) - 2 empty bars

II. Guitars 1 and 2 (w/ dist)

 C|------------------------------|
 G|------------------------------|
D#|------------------------------| x2
A#|------------------------------|
 F|------------------------------|
 C|-0---0--------0--0---0--------|

-----------------------------------------------------------------------------------------
                                    VERSE (00:07-00:23)
-----------------------------------------------------------------------------------------

Here is 3 guitars on the recording, gtrs 1 and 2 panned right and left, gtr 3 - center

                     -----------------------|
Guitars 1 and 2 (w/ dist)                   |
                                            |
 C|------------------------------|          |
 G|------------------------------|          |
D#|------------------------------| x4       |
A#|------------------------------|          |
 F|------------------------------|          |
 C|-0---0------------------------|          |
                                            |
Guitar 3 (w/ dist)                          |
                                            | x2
 C|------------------------------|          |
 G|------------------------------|          |
D#|------------------------------| x3       |
A#|------------------------------|          |
 F|------------------------------|          |
 C|-----------0--0---0--------0--|          |
                                            |
 C|------------------------------|          |
 G|------------------------------|          |
D#|------------------------------|          |
A#|------------------------------|          |
 F|------------------------------|          |
 C|-----------0--0---0-----------|          |
                     -----------------------|

-----------------------------------------------------------------------------------------
                                    CHORUS (00:23-00:30)
-----------------------------------------------------------------------------------------

Guitars 1 and 2 (w/ dist)

 C|-------------------------|
 G|-------------------------|
D#|----------15-------------| x3
A#|----------x--------------|
 F|----------13-------------|
 C|-0-------------0----0----|

 C|----------------------------------------|
 G|----------------------------------------|
D#|----------12-12-12-12-12-12s13-13-13-13-|
A#|----------x--x--x--x--x--x-sx--x--x--x--|
 F|----------10-10-10-10-10-10s11-11-11-11-|
 C|-0--------------------------------------|

Guitar 3 (w/ dist)

 C|----------18-------------|
 G|----------x--------------|
D#|----------15-------------| x3
A#|-------------------------|
 F|-------------------------|
 C|-------------------------|

 C|----------15-15-15-15-15-15s16-16-16-16-|
 G|----------x--x--x--x--x--x-sx--x--x--x--|
D#|----------12-12-12-12-12-12s13-13-13-13-|
A#|----------------------------------------|
 F|----------------------------------------|
 C|----------------------------------------|

-----------------------------------------------------------------------------------------
                                    VERSE 2 (00:30-00:48)
-----------------------------------------------------------------------------------------

                     -----------------------|
I. Guitars 1 and 2 (w/ dist)                |
                                            |
 C|------------------------------|          |
 G|------------------------------|          |
D#|------------------------------| x4       |
A#|------------------------------|          |
 F|------------------------------|          |
 C|-0---0------------------------|          |
                                            |
Guitar 3 (w/ dist)                          |
                                            | x2
 C|------------------------------|          |
 G|------------------------------|          |
D#|------------------------------| x3       |
A#|------------------------------|          |
 F|------------------------------|          |
 C|-----------0--0---0--------0--|          |
                                            |
 C|------------------------------|          |
 G|------------------------------|          |
D#|------------------------------|          |
A#|------------------------------|          |
 F|------------------------------|          |
 C|-----------0--0---0-----------|          |
                     -----------------------|

II. Guitars 1 and 2 (w/ dist) - 2 empty bars

    Guitar 3 (w/ dist)

 C|---------------------------------|------------------------------|
 G|---------------------------------|------------------------------|
D#|---------------------------------|------------------------------|
A#|---------------------------------|------------------------------|
 F|---------------------------------|------------------------------|
 C|-0---0--------0--0---0--------0--|-0---0--------0--0---0--------|

-----------------------------------------------------------------------------------------
                                    CHORUS 2 (00:48-01:03)
-----------------------------------------------------------------------------------------
                                same as CHORUS, but repeat x2
-----------------------------------------------------------------------------------------
                                     BRIDGE (01:03-01:32)
-----------------------------------------------------------------------------------------

Guitars 1 and 2 (w/ dist)

 C|----------------------------|
 G|----------------------------|
D#|----------------------------| x8
A#|----------------------------|
 F|-2---2------2--2---2--------|
 C|-0---0------0--0---0--------|
    *   *      *  *   *
 C|---------------------------------|---------------------------------|
 G|---------------------------------|---------------------------------|
D#|---------------------------------|---------------------------------| x4
A#|---------------------------------|---------------------------------|
 F|---------------------------------|---------------------------------|
 C|-0---0--------0--0---0--------0--|-0---0--------0--0---0--------0--|

-----------------------------------------------------------------------------------------
                                    CHORUS 3 (01:32-01:47)
-----------------------------------------------------------------------------------------
                                       same as CHORUS 2
-----------------------------------------------------------------------------------------
                                    BRIDGE 2 (01:47-02:02)
-----------------------------------------------------------------------------------------

 C|-------------------------------------------------|
 G|-------------------------------------------------|
D#|-7--7--7--7--7--7--7--7--7--7--7--7--7--7--7--7--| x8
A#|-x--x--x--x--x--x--x--x--x--x--x--x--x--x--x--x--|
 F|-5--5--5--5--5--5--5--5--5--5--5--5--5--5--5--5--|
 C|-------------------------------------------------|

-----------------------------------------------------------------------------------------
                                    CHORUS 4 (02:02-02:16)
-----------------------------------------------------------------------------------------
                                       same as CHORUS 2
-----------------------------------------------------------------------------------------
                                    VERSE 3 (02:16-02:33)
-----------------------------------------------------------------------------------------

Guitars 1 and 2 (w/ dist)

 C|-------------------------|
 G|-------------------------|
D#|-------------------------|
A#|-------------------------|
 F|-xxxxxxxxxxxxxxxxxxxxxxx-|
 C|-xxxxxxxxxxxxxxxxxxxxxxx-|
     pick scratch

 C|---------------------------------|------------------------------|
 G|---------------------------------|------------------------------|
D#|---------------------------------|------------------------------|
A#|---------------------------------|------------------------------|
 F|---------------------------------|------------------------------|\
 C|-0---0--------0--0---0--------0--|-0---0--------0--0---0-----0--| \
                                                                      x2
 C|---------------------------------|------------------------------| /
 G|---------------------------------|------------------------------|/
D#|---------------------------------|------------------------------|
A#|---------------------------------|------------------------------|
 F|---------------------------------|------------------------------|
 C|-0---0--------0--0---0--------0--|-0---0--------0--0---0--------|

-----------------------------------------------------------------------------------------
                                     OUTRO (02:33-02:49)
-----------------------------------------------------------------------------------------

Guitars 1 and 2 (w/ dist)

 C|------------------------------|
 G|------------------------------|
D#|------------------------------| x8
A#|---------2--------------------|
 F|---------2--------------------|
 C|-0---0---0----0--0---0--------|

            
Submit corrections


        Fix lessons Hard to play? Try these video lessons and learn fast Fix lessons
        
↑ Back to top | Tablatures and chords for acoustic guitar and electric guitar, ukulele, drums are parodies/interpretations of the original songs. You may use it for private study, scholarship, research or language learning purposes only