» » »

Static - X - Cold Bass

Artists:  A B C D E F G H I J K L M N O P Q R S T U V W X Y Z # 

Cold Bass

(ver. 2) Click to play this song!
Static - X
 Rating:
4/5 (4 votes)

 Cold lessons Tabs too difficult? Try these video lessons and learn fast
 
                This is off of Machine and is a great song but the other tabs to it dont sound 
right to me.So this is the only one with normal tuning,i hope.


Intro

G-----------------------------------------------
D-----------------------------------------------
A-----------------------------------6--5--------         (x8)
E---------8--8--8-8-8--8--8---------------------

Verse

G----------------------------------------------
D----------------------------------------------
A----------------------------------------------       (x8)
E----8--8---8-8-8-8--8--8---------------------

Chorus

G-------------------------------------------
D-------------------------------------------
A-------------------------------5---6-------      (x8)
E----8--8--8-8-8--8--8---------------------

Bridge

G-----------------------------------------
D-----------------------------------------
A-------------------2--0------------------     (x8)
E---0-----4--0----------------0-----------

This is a really easy song to learn it takes seconds and to me this sounds right but 
its hard to tell with a guitar over the top of it but it sounds right to me,please rate this.
Mr T
            
Submit corrections


        Cold lessons Hard to play? Try these video lessons and learn fast Cold lessons
        
↑ Back to top | Tablatures and chords for acoustic guitar and electric guitar, ukulele, drums are parodies/interpretations of the original songs. You may use it for private study, scholarship, research or language learning purposes only