» » »

Static - X - Burning Inside Tabs

Artists:  A B C D E F G H I J K L M N O P Q R S T U V W X Y Z # 

Burning Inside Tabs

(ver. 2) Click to play this song!
Static - X
 Rating:
4/5 (4 votes)

 Burning Inside lessons Tabs too difficult? Try these video lessons and learn fast
 
                This is a real cool song. All guitar parts by wayne static are in cgcfad tuning but
this tab is in drop D. Its just easier that way. 

Intro is like machine noises

e----------------------------------------
b----------------------------------------
g----------------------------------------
d----------------------------------------
a--/8--7--8--7--8--7--8--7--7--7--5--13--
d--/8--7--8--7--8--7--8--7--7--7--5--13--

Verse (Repeat as necissary)

e---------------------------------------
b---------------------------------------
g---------------------------------------
d---------------------------------------
a--8--7--8--7--8--7--8--7--7--7--5--13--
d--8--7--8--7--8--7--8--7--7--7--5--13--

Chorus (Repeat as necissary)

e---------------------
b---------------------
g---------------------
d---------------------
a--8--7--7--7--5--13--
d--8--7--7--7--5--13--

Bridge (Let this chord ring)

e-----
b-----
g-----
d-----
a--5--
d--5--

And thats all there is too it.
            
Submit corrections


        Burning Inside lessons Hard to play? Try these video lessons and learn fast Burning Inside lessons
        
↑ Back to top | Tablatures and chords for acoustic guitar and electric guitar, ukulele, drums are parodies/interpretations of the original songs. You may use it for private study, scholarship, research or language learning purposes only