» » »

Static - X - Black & White Tabs

Artists:  A B C D E F G H I J K L M N O P Q R S T U V W X Y Z # 

Black & White Tabs

(ver. 2) Click to play this song!
Static - X
 Rating:
4/5 (4 votes)

 Black & White lessons Tabs too difficult? Try these video lessons and learn fast
 
                "(1)
Dropped two full steps
Main riff
|------------------------------------------------------|
|------------------------------------------------------|
|--5-5-5-5-5---5-5-5-5-5-----5-5-5-5-5-5-5--5-5-5-5-5--|
|--4-4-4-4-4---4-4-4-4-4-----4-4-4-4-4-4-4--4-4-4-4-4--|
|--3-3-3-3-3---3-3-3-3-3-----3-3-3-3-3-3-3--3-3-3-3-3--|
|--------------------------0------------------------0--|

Verse
|-------------|
|-------------|
|--5-5-5-5-5--|
|--4-4-4-4-4--|
|--3-3-3-3-3--|
|-------------|

Chorus
|--------------|
|--------------|
|--------------|
|--3--5--6--5--|
|--3--5--6--5--|
|--1--3--4--3--|
"            
Submit corrections


        Black & White lessons Hard to play? Try these video lessons and learn fast Black & White lessons
        
↑ Back to top | Tablatures and chords for acoustic guitar and electric guitar, ukulele, drums are parodies/interpretations of the original songs. You may use it for private study, scholarship, research or language learning purposes only