» » »

Static - X - All In Wait Tabs

Artists:  A B C D E F G H I J K L M N O P Q R S T U V W X Y Z # 

All In Wait Tabs

(ver. 1) Click to play this song!
Static - X
 Rating:
4/5 (4 votes)

 All In Wait lessons Tabs too difficult? Try these video lessons and learn fast
 
                Static-X
Shadow Zone
Tuning: CGCFAD

KEY:
x = dead note
X# = play # of times.


NOTE:
Play Each Chorus note 14 times.

Intro: 0:07

Tripp
|----------------|
|----------------|
|-7--10--9---12--|  Each 14
|-x--x---x----x--|
|-5--8---7---10--|
|----------------|

|----------------|
|----------------|
|-7--10--9---8---|
|-x--x---x---x---|
|-5--8---7---6---|
|----------------|


Wayne:
|----------------|
|----------------|
|-7--10--9---8---|
|-x--x---x---x---|  X2
|-5--8---7---6---|
|----------------|



Verse:  0:32

Tripp:
 these are 12s
|--------------------------------------|
|--------------------------------------|
|--------------------------------------|
|--12-1212-12-12-12-12-12-12-13-12-13--|
|--------------------------------------| X 8
|--------------------------------------|
At the last time dont play ^^^^^^^^^^ those notes



Chorus 1 0:59
Tripp

|----------------|
|----------------|
|-7--10--9---8---|
|-x--x---x---x---|
|-5--8---7---6---|
|----------------|


Wayne:
|----------------|
|----------------|
|-7--10--9---8---|
|-x--x---x---x---|
|-5--8---7---6---|
|----------------|


Tripp: 1:12
12s not 1 and 2s
|--------------------------------------|
|--------------------------------------|
|--------------------------------------|
|--12-1212-12-12-12-12-12-12-13-12-13--|
|--------------------------------------| X7
|--------------------------------------|



Chorus 2   1:38

Tripp
|----------------|
|----------------|
|-7--10--9---12--|
|-x--x---x----x--|
|-5--8---7---10--|
|----------------|

|----------------|
|----------------|
|-7--10--9---8---|
|-x--x---x---x---|
|-5--8---7---6---|
|----------------|


Wayne:
|----------------|
|----------------|
|-7--10--9---8---|
|-x--x---x---x---|  X2
|-5--8---7---6---|
|----------------|

^ chorus twice



Bridge: 2:04

|---------------------------------------|
|---------------------------------------|
|---------------------------------------|
|-0000-0-0-0-0-0-0-0----0000-0-0-0-0-0--| X6
|-0000-0-0-0-0-0-0-0----0000-0-0-0-0-0--|
|-0000-0-0-0-0-0-0-0----0000-0-0-0-0-0--|
  .... . . . . . . .    .... . . . . .
2:30
|----------------|
|----------------|
|-7--10--9---8---|
|-x--x---x---x---|
|-5--8---7---6---|
|----------------|



Chorus   2:43
Tripp
|----------------|
|----------------|
|-7--10--9---12--|
|-x--x---x----x--|
|-5--8---7---10--|
|----------------|

|----------------|
|----------------|
|-7--10--9---8---|
|-x--x---x---x---|
|-5--8---7---6---|
|----------------|


Wayne:
|----------------|
|----------------|
|-7--10--9---8---|
|-x--x---x---x---|  X2
|-5--8---7---6---|
|----------------|

^ chorus twice

3:10
|--------------------------------------|
|--------------------------------------|
|--------------------------------------|
|--12-1212-12-12-12-12-12-12-13-12-13--|
|--------------------------------------| X7
|--------------------------------------|


End: 3:35 
15s not 1 and 5s
|--------------------------------------|
|--15-1515-15-15-15-15-15-15-16-15-16--|
|--------------------------------------|
|--------------------------------------|
|--------------------------------------| X8
|--------------------------------------|
            
Submit corrections


        All In Wait lessons Hard to play? Try these video lessons and learn fast All In Wait lessons
        
↑ Back to top | Tablatures and chords for acoustic guitar and electric guitar, ukulele, drums are parodies/interpretations of the original songs. You may use it for private study, scholarship, research or language learning purposes only