Home » S » Star Wars »

Star Wars - Opening Tabs

Artists:  A B C D E F G H I J K L M N O P Q R S T U V W X Y Z # 

Opening Tabs

(ver. 1) Click to play this song!
Star Wars
(Theme)
E|------5----------5-------|
B|-------------------------|
G|----2---2------2---2-----|
D|--2------2---2-------2---|
A|-0---------0-----------0-|
E|-------------------------|


A|-2-2-2-|

E|---------------------------------------|
B|---------------------------------------|
G|------------2----------2---------------|
D|----2---------2------------2-----------|
A|-0~---5-4-2-----5-4-2-------4-5-2----0-|
E|---------------------------------------|
            
Submit corrections

↑ Back to top | Tablatures and chords for acoustic guitar and electric guitar, ukulele, drums are parodies/interpretations of the original songs. You may use it for private study, scholarship, research or language learning purposes only