» » »

Starting Line - Best Of Me Tabs

Artists:  A B C D E F G H I J K L M N O P Q R S T U V W X Y Z # 

Best Of Me Tabs

(ver. 1) Click to play this song!
Starting Line
 Rating:
4/5 (4 votes)


 Best Of Me lessons Tabs too difficult? Try these video lessons and learn fast
 
                "(1)
The Starting Line
Best of Me Acoustic
this tab is kinda hard to under stand


intro play once then guitar 2 plays with it
guitar 1
|-0--0--0--0--0----0-0-0-|-0-|
|-0--0--0--0--0----0-0-0-|-0-|
|-1--2--4--4--2----4-4-2-|-2-|
|-2--2--4--2--2----2-4-2-|-2-|
|-2--0--2--4--0----4-2-0-|-0-|
|------------------------|---|part before verse
these chords are played wierd -0--------000--
listen to the song carefully  -0--------000--
guitar 2                      -2--------777--
|--0-0--0--0--0-0--0--0-0-|   -2--------xxx--
|--0-0--0--0--0-0--0--0-0-|   -0--------999--
|-11-9-11-13-13-9-13-11-9-|   ---------------
|--x-x--x--x--x-x--x--x-x-|         ^
|--9-7--9-11-11-7-11--9-7-|play this| after you play the intro 
|-------------------------|both guitars youl figure it out

verses
guitar 1 i think you strum these
e|------0-----0-----0-----0-----0----0----0----0|
B|----0-----0-----0-----0-----0----0----0----0--|guitar 1 plays this for 
G|--9-----9-----8-----8-----6----6----4----4----| the verses

E|-------0------0------0------0------0-----0-----0-|riff played for verse
B|-----0------0------0------0------0-----0-----0---|how many times you play
G|--13-----13-----11-----11------9-----9-----8-----|varies per verse then play
                                                   
                                                                      many times
                                                                      e|-------|
                                                                      B|--9-9--|
 Both guitars "To meet a familiar voice..."                           G|-9-9-9-|
|-0-------000--|
|-0-------000--|then back to above
|-0-------777--|then play again then 
|-2-------xxx--|guitar 2 plays -0- with guitar ones verse part 
|-2-------999--|               -0-
|--------------|               -9-
                               -9-                        
                               -7-
                               ---  
then this prechorus
|--0----0----0----0--|
|--0----0----0----0--|
|--x----x----x----x--|
|--4----7----4----7--|
|--4----7----4----7--|
|--2----5----2----5--|  
then both guitars play guitar 1 part of the intro for the 
chorus then the part before verse then the verse then prechorus, 
chorus, then the intro which is exactly wut you played for the intro

bridge
guitar 1      guitar 2
|---------m--|--0---m-----0-|
|----0---0a-t|---4--a-t---4-|
|---4---4-n-i|----4-n-i---4-|
|--2---2--y-m|------y-m-----|
|-0---4-----e|--------e-----|
|-----------s|--------s-----|



end its easy to figure out
|-0--0--0--0--0----0-0--| |--0-0--0--0--0--0-0-0-0-0-0-|
|-0--0--0--0--0----0-0--| |--0-0--0--0--0--0-0-0-0-0-0-|
|-1--2--4--4--2----4-4--| |--1-2--4--4--2--4-2-4-2-4-2-|
|-2--2--4--2--2----2-4--| |--2-2--4--2--2--2-2-2-2-2-2-|
|-2--0--2--4--0----4-2--| |--2-0--2--4--0--4-0-4-0-4-0-|
|-----------------------| |----------------------------|
"            
Submit corrections



        Best Of Me lessons Hard to play? Try these video lessons and learn fast Best Of Me lessons
        
↑ Back to top | Tablatures and chords for acoustic guitar and electric guitar, ukulele, drums are parodies/interpretations of the original songs. You may use it for private study, scholarship, research or language learning purposes only