» » »

Starship - Nothing Gonna Stop Us Now Tabs

Artists:  A B C D E F G H I J K L M N O P Q R S T U V W X Y Z # 

Nothing Gonna Stop Us Now Tabs

(ver. 1) Click to play this song!
Starship
 Rating:
4/5 (4 votes)

 Nothing Gonna Stop Us Now lessons Tabs too difficult? Try these video lessons and learn fast
 
                                       ---2------2------2------x---|
                       ---2------2------4------6---|
                       ---3------3------4------6---|
                       ---4------4------4------6---|
                       ---4------4------2------4---|
                       ---2------2------2------x---|

                                 4 counts per chord

solo:
     e:--------------------------------8---7----------------|
     b:---12--------15b17-------------------------10--8-----|
     g:---12--14--12-----14--12--/pm7---pm7---pm7-------7b9-|
     d:-----------------------------------------------------|
     a:-----------------------------------------------------|
     e:-----------------------------------------------------|

     e:---/16-------------15b17b18r15--15-12--12---12-------|
     a:-------15b17r15b17-------------------12---12--15-12--|
     g:-----------------------------------------------------|
     d:-----------------------------------------------------|
     a:-----------------------------------------------------|
     e:-----------------------------------------------------|

     e:----------------------------15--------22-------------|
     a:-------------------------15-----22b24----------------|
     g:---14--12--14--12--14/16-----------------------------|
     d:-----------------------------------------------------|
     a:-----------------------------------------------------|
     e:-----------------------------------------------------|
            
Submit corrections


        Nothing Gonna Stop Us Now lessons Hard to play? Try these video lessons and learn fast Nothing Gonna Stop Us Now lessons
        
↑ Back to top | Tablatures and chords for acoustic guitar and electric guitar, ukulele, drums are parodies/interpretations of the original songs. You may use it for private study, scholarship, research or language learning purposes only