» » »

Starfield - My Generation Tabs

Artists:  A B C D E F G H I J K L M N O P Q R S T U V W X Y Z # 

My Generation Tabs

(ver. 1) Click to play this song!
Starfield
 Rating:
3.3/5 (6 votes)

 My Generation lessons Tabs too difficult? Try these video lessons and learn fast
 
                this is starfield.

intro
E-----------------------------------------------------------------|
B-----------------------------------------------------------------|
G---------------------------7b-------------------------------7b---|
D-55-5-55-5-77-7-77-999-9-9-7b-----55-5-55-5-77-7-77-999-9-9-7b---|
A-55-5-55-5-77-7-77-999-9-9-5b-----55-5-55-5-77-7-77-999-9-9-5b---|
E-33-3-33-3-55-5-55-777-7-7--------33-3-33-3-55-5-55-777-7-7------|


verse- the verse is just bass and drums


chorus
E------------------------------------------------------------------------|
B------------------------------------------------------------------------|
G-------------7-7-7-------------7-7-7---------------7-7-7-7-7------------|
D-5-5-5-5-5-x-7-7-7-7-7-7-7-7-x-7-7-7-2-2-2-2-2-2-2-7-7-7-7-7-7-7-7-7-7--|
A-5-5-5-5-5-x-5-5-5-7-7-7-7-7-x-5-5-5-2-2-2-2-2-2-2-5-5-5-5-5-7-7-7-7-7--|
E-3-3-3-3-3-x-------5-5-5-5-5-x-------0-0-0-0-0-0-0-----------5-5-5-5-5--|

same verse

same chorus


bridge/solo
E---------------------------------------------------------------------|
B------------------------------9-10-12-13---------9-10-12-13/16b------|
G-------------------------9-11---------------9-11---------------------|
D-55---55---77---77---------------------------------------------------|
A-55---55---77---77---------------------------------------------------|
E-33---33---55---55---------------------------------------------------|


play chorus till end.

thats the song
            
Submit corrections


        My Generation lessons Hard to play? Try these video lessons and learn fast My Generation lessons
        
↑ Back to top | Tablatures and chords for acoustic guitar and electric guitar, ukulele, drums are parodies/interpretations of the original songs. You may use it for private study, scholarship, research or language learning purposes only