Home » S » Squeeze »

Squeeze - Tempted Bass

Artists:  A B C D E F G H I J K L M N O P Q R S T U V W X Y Z # 

Tempted Bass

(ver. 1) Click to play this song!
Squeeze

Not sure about the muting technique (x), but notes are doubled mostly and second note is 
less emphasized (not quite muted)...

G  :----------------|----------------|----------------|----------------|
D  :----------------|----------------|----------------|----------------|
A  :2-x-2-x---------|----------------|2-x-2-x---------|----------------|
E  :--------5-x-5-x-|4-x-4-x-0-x-0-4-|--------5-x-5-x-|4-4-4-2-0-0-0-4-|

G  :----------------|----------------|----------------|----------------|
D  :----------------|----------------|----------------|----------------|
A  :2-2-2-2-1-1-1-1-|----------------|8-8-8-8-8-8-8-8-|7-7-7-7-7-7-7-7-|
E  :----------------|4-4-4-4-4-4-4-4-|----------------|----------------|
    Verse


G  :----------------|----------------|----------------|
D  :----------------|----------------|----------------|
A  :----------------|----------------|------------5---|
E  :7-7-7-7-7-7-7-7-|2-2-2-2-2-2-2-2-|5-5-5-5-5-------|


G  :----------------|----------------|----------------|----------------|
D  :----------------|----------------|----------------|2-2-2-2-3-3-3-3-|
A  :----------------|--------------1-|2-2-2-2-2-4-5-6-|----------------|
E  :0-0-0-0-0-0-0-2-|3-3-3-3-3-3-5---|----------------|----------------|

G  :----------------|----------------|----------------|----------------|
D  :4-4-4-4-4-4-4-4-|2-2-2-2-2-2-2-2-|4-4-4-4-3-3-3-3-|2-2-2-2---------|
A  :----------------|----------------|----------------|--------5-5-5-5-|
E  :----------------|----------------|----------------|----------------|


G  :----------------|----------------|----------------|----------------|
D  :----------------|----------------|----------------|----------------|
A  :2-2-2-2---------|----------------|2-2-2-2---------|----------------|
E  :--------5-5-5-5-|4-4-4-4-0-0-0-4-|--------5-5-5-5-|4-4-4-2-0-0-0-0-|
   (Chorus)


G  :----------------|----------------|----------------|----------------|
D  :----------------|----------------|----------------|----------------|
A  :4-4-4-4-4-4-4-4-|----------------|2-2-2-2---------|----------------|
E  :----------------|2-2-2-2-2-2-2-2-|--------5-5-5-5-|4-4-4-4-0-0-0-4-|

G  :----------------|----------------|----------------|----------------|
D  :----------------|----------------|----------------|----------------|
A  :2-2-2-2---------|----------------|4-4-4-4-4-4-4-4-|----7-7-----7-7-|
E  :--------5-5-5-5-|4-4-4-2-0-0-0-0-|----------------|0-0-----0-0-----|

G  :----------------|
D  :----------------|
A  :----7-7-----7-7-|
E  :0-0-----0-0-----|
            
Submit corrections

↑ Back to top | Tablatures and chords for acoustic guitar and electric guitar, ukulele, drums are parodies/interpretations of the original songs. You may use it for private study, scholarship, research or language learning purposes only