» » »

Squad Five-O - United We Stand Bass

Artists:  A B C D E F G H I J K L M N O P Q R S T U V W X Y Z # 

United We Stand Bass

(ver. 1) Click to play this song!
Squad Five-O
 Rating:
4/5 (4 votes)
                Intro
g----------------------------------------------------------------------------
d--------4--7--4-----------------------------------------------2--5--2-----
a-----5-----------------2--5--2-----------4--7--4--------3---------------
e---------------------3-----------------5-----------------------------------


V1
g-------------------------------------------7-
d----------------------------------------------
a------5--------------------5-----------------
e----------------------------------------------


Chorus           First part kind of regae sounding
g-----------------------------------------------------------------------------
d--------4--7--4--------------------------------------------------2--5--2--
a----5--------------------2--5--2---------4--7--4------------3------------
e----------------------3----------------5------------------------------------


Chorus                  Second Part really fast
g---------------------------------------------------------------
d-------4--7--4-----------------------------------------------
a----5-----------------2--5--2---------4--7--4---------3----
e-------------------3----------------5-------------------------



Reapeat V1   then chorus both parts.


Then it sounds like it ends but dosen't. Jeff comes in with the guitar. When he says,  "Pick it up" come in with:

g------------------------------------------------------------------
d------------------------------------------------------------------
a--------------------------------33333333-----55555555-----
e---33333333---55555555------------------------------------

Then it goes into the same thing just a diffrent rythem.The rest of the song is the the same thing. 
Listen to it to get the diffrent rythems. John does alot of other little walks that you will just have to listen to get. 
There are to many to tab. Just listen to the song to get the rythems to everything. 
The  intro is very fast. You should begin to see a pattern and a structure. 
            
Submit corrections

↑ Back to top | Tablatures and chords for acoustic guitar and electric guitar, ukulele, drums are parodies/interpretations of the original songs. You may use it for private study, scholarship, research or language learning purposes only