» » »

Spunge - No Woman No Cry Tabs

Artists:  A B C D E F G H I J K L M N O P Q R S T U V W X Y Z # 

No Woman No Cry Tabs

(ver. 1) Click to play this song!
Spunge
 Rating:
4.3/5 (23 votes)

 No Woman No Cry lessons Tabs too difficult? Try these video lessons and learn fast
 
                Standard tuning: E A D G B E


e|-------------------------------------------------------5--------------------------------------------------|
B|----------------------------------------------------5----8-5----------------------------------------------|
G|-----------------5-7---7^5p5-7-5----7-5-7^--------------7-5-7^5p5-7-5---7-5 7p6p5-----5-------------------|
D|-----------5-7--------------------------------------------------------------------------------------7-----|
A|-----5-7--------------------------------------------------------------------------------------------------|
E|----------------------------------------------------------------------------------------------------------|

e|--------------------------------------------------------------------------------------------------5-------|
B|------------------------------------------------------------------------------------------------5---8-5---|
G|---------------------------------------------------------------2-5--7^5p5-7-5—7-5-7^----------------------|
D|----7p6p5----5----------------------------------------2-5-------------------------------------------------|
A|--------------7-----7-5-3p0-0------------------3-5--------------------------------------------------------|
E|-----------------------------------5/0---3h4h5------------------------------------------------------------|

e|----------------------------------------------------------------------------------------------------------|
B|-----------------------------------------------------------------8------8------8--------------------------|
G|---7^5p5-5—7-5-7^-7-5-4—5-4—5-4-------------7^----7^----7^----7^5p5---5-----------------------------------|
D|-------------------------------------------------7-5---5----------------------------------7-----7-5----5--|
A|------------------------------------------------------7-------------------------------------------------7-|
E|----------------------------------------------------------------------------------------------------------|

e|----------------------------------------------------------------------------------------------------------|
B|----------------------------------------------------------------------------------------------------------|
G|----------------------------------------------------------------------------------------------------------|
D|----------------------------------------------------------------------------------------------------------|
A|--7-5-3-5-3--------3--------------------------------------------------------------------------------------|
E|---------------5-3-5--------------------------------------------------------------------------------------|            
Submit corrections


        No Woman No Cry lessons Hard to play? Try these video lessons and learn fast No Woman No Cry lessons
        
↑ Back to top | Tablatures and chords for acoustic guitar and electric guitar, ukulele, drums are parodies/interpretations of the original songs. You may use it for private study, scholarship, research or language learning purposes only