» » »

Sportfreunde Stiller - Independend Tabs

Artists:  A B C D E F G H I J K L M N O P Q R S T U V W X Y Z # 

Independend Tabs

(ver. 1) Click to play this song!
Sportfreunde Stiller
 Rating:
4/5 (4 votes)

 Independend lessons Tabs too difficult? Try these video lessons and learn fast
 
                Sportfreunde stiller 
Independent
Die Gute seite 

Normal tuning
Intro/chorus
-------------9-9-9-9-9-9-------------------7-7-7-7-7-7-----
--7-7--7-7---9-9-9-9-9-9---4-4-4-4-4-4-----7-7-7-7-7-7-----
--7-7--7-7---7-7-7-7-7-7---4-4-4-4-4-4-----5-5-5-5-5-5-----
--4s5--4s5-----------------2-2-2-2-2-2-----------------------

verse
----------------
-----------------
-----------------
--11---9---6----
--11---9---6---
---9---7---4---

find out the timing
what the second guitar do i dont know

have fun

dear felix
            
Submit corrections


        Independend lessons Hard to play? Try these video lessons and learn fast Independend lessons
        
↑ Back to top | Tablatures and chords for acoustic guitar and electric guitar, ukulele, drums are parodies/interpretations of the original songs. You may use it for private study, scholarship, research or language learning purposes only