» » »

Sportfreunde Stiller - Alles Roger Tabs

Artists:  A B C D E F G H I J K L M N O P Q R S T U V W X Y Z # 

Alles Roger Tabs

(ver. 1) Click to play this song!
Sportfreunde Stiller
 Rating:
4/5 (4 votes)

 Alles Roger lessons Tabs too difficult? Try these video lessons and learn fast
 
                -------------------------------------------------------------------------------
                             SONG NAME - Alles Roger
-------------------------------------------------------------------------------

Tuning:

e|----------------------------------|
B|----------------------------------|
G|----------------------------------|
D|----------------------------------|
A|-5-5-5-7-7-7-9-9-9-10-10-11-11-12-|
E|-3-3-3-5-5-5-7-7-7-8--8--9--9--10-|

e|----------------|
B|----------------|
G|------------12--|
D|-9----------10--| x4
A|-7--9---10--10--|
E|----7---8-------|  
  

Habe die Ehre liebe Sprachbarriere,
oft und gerne kommst du mir in die Quere
Ich hab keine Ahnung nicht mal ne ungefähre,

e|-------------|
B|-------------|
G|-12-12-12----|
D|-10-10-10----|
A|-10-10-10----|
E|-------------|  
  
Ende Gelände sone Elende Misere

e|--------------------------------------------------|
B|--------------------------------------------------|
G|-12-12-12-----------------------------------------|
D|-10-10-10-----------------------------------------|
A|-10-10-10-9-9-9-9-9-9-9-9-10-10-10-10-10-10-10-10-|
E|----------7-7-7-7-7-7-7-7-8--8--8--8--8--8--8--8--|


e|----------------|
B|----------------|
G|------------12--|
D|-9----------10--| x4
A|-7--9---10--10--|
E|----7---8-------|  
  
Eine Doktrine ist keine Medizinerin,
eine Blockade ist keine hippe Berlin-Limonade,
Bebop ist kein Schlitten,
Die Sugababes sind nicht Atomic Kitten

Lol zb etcetera pP.

A|-9-9-9-9-9-9-9-9-10-10-10-10-10-10-10-10-|
E|-7-7-7-7-7-7-7-7-8--8--8--8--8--8--8--8--|

   G
Ja ne
          Bm
Sicherlich klar
        Em
Alles Roger
          C
Alles wunderbar.
    G
Ja ne
           Bm
Nichts ist klar
          Em
Wer ist Roger
          C
Wer ist Roger.

e|----------------|
B|----------------|
G|------------12--|
D|-9----------10--| 
A|-7--9---10--10--|
E|----7---8-------| 

 Offenheit ist eine variable Größe
Du gibst dir Klöße mit Soße lieber als die Blöße

D|-9-9-9-9-11--7--7-7-7-7-9-|
A|-7-7-7-7-9---5--5-5-5-5-7-|
E|--------------------------|

Was ich nicht weiß macht mich heiß !

e|--------------------------------------------------|
B|--------------------------------------------------|
G|-12-12-12-----------------------------------------|
D|-x--x--x------------------------------------------|
A|-9--9--9--9-9-9-9-9-9-9-9-10-10-10-10-10-10-10-10-|
E|----------7-7-7-7-7-7-7-7-8--8--8--8--8--8--8--8--|

Ja nee...

D                   G    D                  G
Niveau ist keine Creme. Empathie ist kein Problem

e|--------------------------7-7----------------10--10-10-7
B|------------------------------7--7-7-7-8-8-8------------
G|------------12--12-12-12--------------------------------
D|-9----------x---x--x--x--------------------------------- 
A|-7--9---10--10--10-10-10-------------------------------- 
E|----7---8----------------------------------------------- 

 -7-7----------------10--10-10-7|
 -----7--7-7-7-8-8-8------------|
 -------------------------------|
 -------------------------------| 
 -------------------------------| 
 -------------------------------| 

Nachhaltig stellen wir fest: Asinus humanum est


A|-9-9-9-9-9-9-9-9-10-10-10-10-10-10-10-10-|
E|-7-7-7-7-7-7-7-7-8--8--8--8--8--8--8--8--|


ja nee...

e|-----------------------------------|
B|-----------------------------------|
G|------------12-----12--12-12-12----|
D|-9----------10-----10--10-10-10-12-| 
A|-7--9---10--10-10--10--10-10-10-10-|
E|----7---8------8-------------------|
            
Submit corrections


        Alles Roger lessons Hard to play? Try these video lessons and learn fast Alles Roger lessons
        
↑ Back to top | Tablatures and chords for acoustic guitar and electric guitar, ukulele, drums are parodies/interpretations of the original songs. You may use it for private study, scholarship, research or language learning purposes only