» » »

Spoon - Hot Thoughts Tabs

Artists:  A B C D E F G H I J K L M N O P Q R S T U V W X Y Z # 

Hot Thoughts Tabs

(ver. 1) Click to play this song!
Spoon
 Rating:
4.3/5 (12 votes)

 Hot Thoughts  lessons Tabs too difficult? Try these video lessons and learn fast
 
                [Intro/Verse]
(Technically no guitar but this is the chord that the keyboard is playing)
                    
                    "Hot Thoughts melting my mind.."
                    Cm
e|------------------8~-----------------------8~----------------------------------|
B|------------------8~-----------------------8~----------------------------------|
G|------------------8~-----------------------8~----------------------------------|
D|------------------10~----------------------10~---------------------------------|
A|------------------10~----------------------10~---------------------------------|
E|------------------8~-----------------------8~----------------------------------|

                    Cm
e|------------------8~-----------------------8~----------------------------------|
B|------------------8~-----------------------8~----------------------------------|
G|------------------8~-----------------------8~----------------------------------|
D|------------------10~----------------------10~---------------------------------|
A|------------------10~----------------------10~---------------------------------|
E|------------------8~-----------------------8~----------------------------------|

[Chorus]
e|--------------------------------------------------------------------------|
B|--------------------------------------------------------------------------|
G|--------------------------------------------------------------------------|
D|-----------10~----------10--------------10~----------10--------------10~--|
A|---13--13-------13--13------13--12--12-------12--12------12--11--11-------|
E|--------------------------------------------------------------------------|

e|--------------------------------------------------------------------------|
B|--------------------------------------------------------------------------|
G|--------------------------------------------------------------------------|
D|-----------10--------------10~--------------------------------------------|
A|---11--11------11--10--10-------10--10--8--10-----------------------------|
E|--------------------------------------------------------------------------|

e|--------------------------------------------------------------------------|
B|--------------------------------------------------------------------------|
G|--------------------------------------------------------------------------|
D|-----------10~----------10--------------10~----------10--------------10~--|
A|---13--13-------13--13------13--12--12-------12--12------12--11--11-------|
E|--------------------------------------------------------------------------|

e|-------------------------8------8------8----------------------------------|
B|-------------------------8------8------8----------------------------------|
G|-------------------------8------8------8----------------------------------|
D|-----------10------------10-----10-----10---------------------------------|
A|---11--11------11--10~---10-----10-----10---------------------------------|
E|-------------------------8------8------8----------------------------------|

[Post-Chorus]
e|-----8----8-----8~------8-----8-----x-------8----8-----8~------8-----8-----x-----|
B|-----8----8-----8~------8-----8-----x-------8----8-----8~------8-----8-----x-----|
G|-----8----8-----8~------8-----8-----x-------8----8-----8~------8-----8-----x-----|
D|-----10---10----10~-----10----10----x-------10---10----10~-----10----10----x-----| (x2)
A|-----10---10----10~-----10----10----x-------10---10----10~-----10----10----x-----|
E|-----8----8-----8~------8-----8-----x---8---8----8-----8~------8-----8-----x-----|

[Guitar Solo]
e|----8---8---x---8----x--x-------------------------------------------------------|
B|----8---8---x---8----x--x-------------------------------------------------------|
G|----8---8---x---8----x--x-------------------------------------------------------|
D|----10--10--x---10---x--x-------------------------------------------------------|
A|------------x--------x--x----10h11--11-11--x-x--11h13-13-11h13-13--11--10-------|
E|------------x--------x--x-------------------------------------------------------|

e|----------------8----x--x-------------------------------------------------------|
B|----------------8----x--x-------------------------------------------------------|
G|----------------8----x--x-------------------------------------------------------|
D|----------------10---x--x-------------------------------------------------------|
A|---------------------x--x----10h11--11-11--x-11-13--11--10--11--10--------------|
E|----8~---------------x--x-------------------------------------------------------|

e|----8---8---x---8----x--x-------------------------------------------------------|
B|----8---8---x---8----x--x-------------------------------------------------------|
G|----8---8---x---8----x--x-------------------------------------------------------|
D|----10--10--x---10---x--x-------------------------------------------------------|
A|------------x--------x--x----10h11--11-11--x-x--11h13-13-11h13-13--11--10-------|
E|------------x--------x--x-------------------------------------------------------|

e|---x--x--x--x---8--8--8--8-------------------------------------------x-----8------|
B|---x--x--x--x---8--8--8--8-------------------------------------------x-----8------|
G|---x--x--x--x---8--8--8--8-------------------------------------------x-----8------|
D|---x--x--x--x---10-10-10-10------------------------------------------x-----10-----|
A|---x--x--x--x----------------10h11--11-11--x-11--13--11--10--11--10--x------------|
E|---x--x--x--x--------------------------------------------------------x--8------8--|

[Verse]
                   
                    "Your teeth shining so white.."
                    Cm
e|------------------8~-----------------------8~----------------------------------|
B|------------------8~-----------------------8~----------------------------------|
G|------------------8~-----------------------8~----------------------------------|
D|------------------10~----------------------10~---------------------------------|
A|------------------10~----------------------10~---------------------------------|
E|------------------8~-----------------------8~----------------------------------|

                    Cm
e|------------------8~-----------------------8~----------------------------------|
B|------------------8~-----------------------8~----------------------------------|
G|------------------8~-----------------------8~----------------------------------|
D|------------------10~----------------------10~---------------------------------|
A|------------------10~----------------------10~---------------------------------|
E|------------------8~-----------------------8~----------------------------------|

[Chorus]
(There are two guitar parts: the lead guitar will start and then at minute 1:50 the rhythm guitar comes in)
e|--------------------------------------------------------------------------|
B|--------------------------------------------------------------------------|
G|--------------------------------------------------------------------------|
D|-----------10~----------10--------------10~----------10--------------10~--|
A|---13--13-------13--13------13--12--12-------12--12------12--11--11-------|
E|--------------------------------------------------------------------------|

e|--------------------------------------------------------------------------|
B|--------------------------------------------------------------------------|
G|--------------------------------------------------------------------------|
D|-----------10--------------10~--------------------------------------------|
A|---11--11------11--10--10-------10--10--8--10-----------------------------|
E|--------------------------------------------------------------------------|

e|--------------------------------------------------------------------------|
B|--------------------------------------------------------------------------|
G|--------------------------------------------------------------------------|
D|-----------10~----------10--------------10~----------10--------------10~--|
A|---13--13-------13--13------13--12--12-------12--12------12--11--11-------|
E|--------------------------------------------------------------------------|

e|--------------------------------------------------------------------------|
B|--------------------------------------------------------------------------|
G|--------------------------------------------------------------------------|
D|-----------10--------------10~--------------------------------------------|
A|---11--11------11--10--10-------10--10--8--10-----------------------------|
E|--------------------------------------------------------------------------|

e|--------------------------------------------------------------------------|
B|--------------------------------------------------------------------------|
G|--------------------------------------------------------------------------|
D|-----------10~----------10--------------10~----------10--------------10~--|
A|---13--13-------13--13------13--12--12-------12--12------12--11--11-------|
E|--------------------------------------------------------------------------|

e|-------------------------1------1------1------1----------------------------|
B|-------------------------1------1------1------1----------------------------|
G|-------------------------1------1------1------1----------------------------|
D|-----------10------------3------3------3------3----------------------------|
A|---11--11------11--10~---3------3------3------3----------------------------|
E|-------------------------1------1------1------1----------------------------|

[Rhythm Guitar part]
e|---------------------------------------------------------------------------|
B|---------------------------------------------------------------------------|
G|---------------------------------------------------------------------------|
D|----8--8---------8--8-----------7--7----------7--7------------6--6---------|
A|----8--8---------8--8-----------7--7----------7--7------------6--6---------|
E|----6--6---------6--6-----------5--5----------5--5------------4--4---------|

e|-------------------------8------8------8-----------------------------------|
B|-------------------------8------8------8-----------------------------------|
G|-------------------------8------8------8-----------------------------------|
D|----6--6-----------------10-----10-----10----------------------------------|
A|----6--6-----------------10-----10-----10----------------------------------|
E|----4--4-----------------8------8------8-----------------------------------|

e|---------------------------------------------------------------------------|
B|---------------------------------------------------------------------------|
G|---------------------------------------------------------------------------|
D|----8--8---------8--8-----------7--7----------7--7------------6--6---------|
A|----8--8---------8--8-----------7--7----------7--7------------6--6---------|
E|----6--6---------6--6-----------5--5----------5--5------------4--4---------|

e|--------------------------1------1------1------1---------------------|
B|--------------------------1------1------1------1---------------------|
G|--------------------------1------1------1------1---------------------|
D|----6--6------------------3------3------3------3---------------------|
A|----6--6------------------3------3------3------3---------------------|
E|----4--4------------------1------1------1------1---------------------|

[Post-Chorus]
e|-----8----8-----8~------8-----8-----x-------8----8-----8~------8-----8-----x-----|
B|-----8----8-----8~------8-----8-----x-------8----8-----8~------8-----8-----x-----|
G|-----8----8-----8~------8-----8-----x-------8----8-----8~------8-----8-----x-----|
D|-----10---10----10~-----10----10----x-------10---10----10~-----10----10----x-----| (x2)
A|-----10---10----10~-----10----10----x-------10---10----10~-----10----10----x-----|
E|-----8----8-----8~------8-----8-----x---8---8----8-----8~------8-----8-----x-----|

[Guitar Solo]
e|----8---8---x---8----x--x-------------------------------------------------------|
B|----8---8---x---8----x--x-------------------------------------------------------|
G|----8---8---x---8----x--x-------------------------------------------------------|
D|----10--10--x---10---x--x-------------------------------------------------------|
A|------------x--------x--x----10h11--11-11--x-x--11h13-13-11h13-13--11--10-------|
E|------------x--------x--x-------------------------------------------------------|

e|----8--8--8--8--8--8---x--x----------------------------------------------------------------------|
B|----8--8--8--8--8--8---x--x----------------------------------------------------------------------|
G|----8--8--8--8--8--8---x--x----------------------------------------------------------------------|
D|----10-10-10-10-10-10--x--x----------------------------------------------------------------------|
A|-------------------------------10h11--11-11--x-11-11--13--11--10--11--10-10-10-10-10-10-10-10-10-|
E|-------------------------------------------------------------------------------------------------|

[Bridge]

     "Took time off from my kingdom..."
e|---8---------------------6---------------------1---------------------1------------------|
B|---8---------------------6---------------------1---------------------1------------------|
G|---8---------------------7---------------------2---------------------2------------------|
D|---10--------------------8---------------------3---------------------3------------------| (x2)
A|---10--------------------8---------------------3---------------------3------------------|
E|---8---------------------6---------------------1---------------------1------------------|

[Piano riff]
e|---------------------------------------------------------------------------------|
B|------------8--------------------8---------------------8-------------------------|
G|------------------10---8----------------10---8----------------10---8-------------|
D|--------10-----10--------10--10-----10---------10--10-----10---------10----------|
A|---------------------------------------------------------------------------------|
E|---------------------------------------------------------------------------------|

      "That drag drug from your lips..."

e|-------------------------------------------------------------------------------|
B|-------------------------------------------------------------------------------|
G|-------------------------------------------------------------------------------|
D|-------------------------------------------------------------------------------| (x2)
A|-------------------------------------------------------------------------------|
E|---8---------------------6----------------------1---------------------4--------|

[Chorus]
e|--------------------------------------------------------------------------|
B|--------------------------------------------------------------------------|
G|--------------------------------------------------------------------------|
D|-----------10~----------10--------------10~----------10--------------10~--|
A|---13--13-------13--13------13--12--12-------12--12------12--11--11-------|
E|--------------------------------------------------------------------------|

e|--------------------------------------------------------------------------|
B|--------------------------------------------------------------------------|
G|--------------------------------------------------------------------------|
D|-----------10--------------10~--------------------------------------------|
A|---11--11------11--10--10-------10--10--8--10-----------------------------|
E|--------------------------------------------------------------------------|

e|--------------------------------------------------------------------------|
B|--------------------------------------------------------------------------|
G|--------------------------------------------------------------------------|
D|-----------10~----------10--------------10~----------10--------------10~--|
A|---13--13-------13--13------13--12--12-------12--12------12--11--11-------|
E|--------------------------------------------------------------------------|

e|--------------------------------------------------------------------------|
B|--------------------------------------------------------------------------|
G|--------------------------------------------------------------------------|
D|-----------10--------------10~--------------------------------------------|
A|---11--11------11--10--10-------10--10--8--10-----------------------------|
E|--------------------------------------------------------------------------|

e|--------------------------------------------------------------------------|
B|--------------------------------------------------------------------------|
G|--------------------------------------------------------------------------|
D|-----------10~----------10--------------10~----------10--------------10~--|
A|---13--13-------13--13------13--12--12-------12--12------12--11--11-------|
E|--------------------------------------------------------------------------|

e|-------------------------1------1------1------1----------------------------|
B|-------------------------1------1------1------1----------------------------|
G|-------------------------1------1------1------1----------------------------|
D|-----------10------------3------3------3------3----------------------------|
A|---11--11------11--10~---3------3------3------3----------------------------|
E|-------------------------1------1------1------1----------------------------|

[Rhythm Guitar part]
e|---------------------------------------------------------------------------|
B|---------------------------------------------------------------------------|
G|---------------------------------------------------------------------------|
D|----8--8---------8--8-----------7--7----------7--7------------6--6---------|
A|----8--8---------8--8-----------7--7----------7--7------------6--6---------|
E|----6--6---------6--6-----------5--5----------5--5------------4--4---------|

e|-------------------------8------8------8-----------------------------------|
B|-------------------------8------8------8-----------------------------------|
G|-------------------------8------8------8-----------------------------------|
D|----6--6-----------------10-----10-----10----------------------------------|
A|----6--6-----------------10-----10-----10----------------------------------|
E|----4--4-----------------8------8------8-----------------------------------|

e|---------------------------------------------------------------------------|
B|---------------------------------------------------------------------------|
G|---------------------------------------------------------------------------|
D|----8--8---------8--8-----------7--7----------7--7------------6--6---------|
A|----8--8---------8--8-----------7--7----------7--7------------6--6---------|
E|----6--6---------6--6-----------5--5----------5--5------------4--4---------|

e|--------------------------1------1------1------1---------------------|
B|--------------------------1------1------1------1---------------------|
G|--------------------------1------1------1------1---------------------|
D|----6--6------------------3------3------3------3---------------------|
A|----6--6------------------3------3------3------3---------------------|
E|----4--4------------------1------1------1------1---------------------|

[Outro]
e|-----8----8-----8~------8-----8-----x-------8----8-----8~------8-----8-----x-----|
B|-----8----8-----8~------8-----8-----x-------8----8-----8~------8-----8-----x-----|
G|-----8----8-----8~------8-----8-----x-------8----8-----8~------8-----8-----x-----|
D|-----10---10----10~-----10----10----x-------10---10----10~-----10----10----x-----| (x3)
A|-----10---10----10~-----10----10----x-------10---10----10~-----10----10----x-----|
E|-----8----8-----8~------8-----8-----x---8---8----8-----8~------8-----8-----x-----|

[2nd Guitar plays over chords on the outro]
e|------------------------------------8--------------------------------------8-----|
B|------------------------------8--------------------------------------8-----------|
G|------------------------8--------------------------------------8-----------------|
D|---------------------------------------------------------------------------------|
A|---------------------------------------------------------------------------------|
E|---------------------------------------------------------------------------------|            
Submit corrections


        Hot Thoughts  lessons Hard to play? Try these video lessons and learn fast Hot Thoughts  lessons
        
↑ Back to top | Tablatures and chords for acoustic guitar and electric guitar, ukulele, drums are parodies/interpretations of the original songs. You may use it for private study, scholarship, research or language learning purposes only