» » »

Spoon - Fitted Shirt Tabs

Artists:  A B C D E F G H I J K L M N O P Q R S T U V W X Y Z # 

Fitted Shirt Tabs

(ver. 1) Click to play this song!
Spoon
 Rating:
3.8/5 (5 votes)

 Fitted Shirt lessons Tabs too difficult? Try these video lessons and learn fast
 
                -------------------------------------------------------------------------------
-------------------------------------------------------------------------------



Tuning: standard


Riff A - verse, first two lines
e|-----------------------------------------|
b|-----------------------------------------|
g|-----------------------------------------|
d|---7-7-7-----7-7-7-----7-7-7-----7-7-7---|
a|---7-7-7-----7-7-7-----7-7-7-----7-7-7---|
e|-7-5-5-5---7-5-5-5---7-5-5-5---7-5-5-5---|

Riff B - verse, next two lines
e|---------------------------------|
b|---------------------------------|
g|---------------------------------|
d|-5---4---5---4-7-7-7-7---7-7-7---|
a|-5---5---5---5-7-7-7-7---7-7-7---| repeat 1x
e|-3-0-2-0-3-0-2-5-5-5-5-7-5-5-5---|

Riff C, listen for rhythm - I Long For The Days...
e|-----------------------------|
b|-----------------------------|
g|-------------------------6---|
d|-7---7---7---7---7---5---7---|
a|-9---8---7---6---5---5---7---| repeat 1x 
e|---------------------3---5---|

The turn-around:

First, Play Riff A followed by this
e|---------------------------------|
b|---------------------------------|
g|-5---4---5---4-------------------|
d|-5---5---5---5-7-7-7-7---7-7-7---| repeat 1x
a|-3-0-2-0-3-0-2-7-7-7-7---7-7-7---|
e|---------------5-5-5-5-7-5-5-5---|

Then, Play Riff A followed by this
e|---------------------------------|
b|---------------------------------|
g|---------------------------------|
d|-7---7---7---7-7-7-7-7---7-7-7---| repeat 1x
a|-5---4---5---4-7-7-7-7---7-7-7---|
e|---7---7---7---5-5-5-5-7-5-5-5---|

For "Fitted Shirt, Fitted Shirt" parts, I think they play A and D chords at fret 5.
            
Submit corrections


        Fitted Shirt lessons Hard to play? Try these video lessons and learn fast Fitted Shirt lessons
        
↑ Back to top | Tablatures and chords for acoustic guitar and electric guitar, ukulele, drums are parodies/interpretations of the original songs. You may use it for private study, scholarship, research or language learning purposes only