Home » S » Spoon »

Spoon - Don't Make Me A Target Bass

Artists:  A B C D E F G H I J K L M N O P Q R S T U V W X Y Z # 

Don't Make Me A Target Bass

(Version #1)
Spoon
----------------------------------------------------------------------------
----------------------------------------------------------------------------


I have divided the song into 6 parts and put their timing in the song in parens. Thus
intro will last from the beginning of the song until 2 seconds in, the first riff will
times may differ from mine if you have a different version of this song. There is no
in the song 2:06-2:10, that is the 'solo.' Hope it isn't too confusing.

Tuning: EADG

1. Bass intro: (0:00-0:02)

G|-------------------------------------------------------------------------|
D|-------------------------------------------------------------------------|
A|-----2---------------6--------------7------------------------------------|
E|-------------------------------------------------------------------------|

2. Main Riff: (0:18-0:40)(1:31-1:42)(3:15-3:25)

G|-------------------------------------------------------------------------|
D|-------------------------------------------------------------------------|
A|--7-7-7-7-6-6-6-6-5-5-5-5-4-4-4-4-3-3-3-3-2-2-2-2-/6-6-6-6-7-7-7-7-------|
E|-------------------------------------------------------------------------|

3. Chorus: (0:41-0:51)(1:20-1:30)(1:57-2:05)(3:06-3:14)(3:26-3:35)

G|-------------------------------------------------------------------------|
D|--------------------------------7-7-7-9-10-10-10-10-9-9-9-9--------------|
A|----10-10-10-10-9-9-9-9-7-7-7-7------------------------------------------|
E|-------------------------------------------------------------------------|

4. Post-Chorus (0:52-1:19)(1:43-1:56)

G|----------------------------------------------------------9--------------|
D|--------------------------------------------------------9---9------------|
A|-7--0-7/6--0-6/5--0-5/4--0-4/3--0-3/2-2-2-2-/6-6-6-6-7-------------------|
E|-------------------------------------------------------------------------|

5. After 'solo' break (2:10-2:19)

G|-------------------------------------------------------------------------|
D|-------------------------------------------------------------------------|
A|---7-7--6-6--5-5--4-4--3-3--2-2--/6-6--7-7-7-7-7-7-7-7-------------------|
E|-------------------------------------------------------------------------|

6. Bridge? (2:20-3:05)

G|-------------------------------------------------------------------------|
D|---------------9-----------------9---------9---------9---9--9--9---------|
A|-7-7-7-7-7-7-7---7-7-7-7-7-7-7-7---7-7-7-7---7-7-7-7---7--7--7---7-------|
E|-------------------------------------------------------------------------|

G|-------------------------------------------------------------------------|
D|-------------------------------------------------------------------------|
A|---------5-3-3-3-3---5-3-3-3-3---5-3-3-3-3---5-3-3-3---5-3-3-3-----------|
E|-------------------------------------------------------------------------|

G|-------------------------------------------------------------------------|
D|---------------9-----------------9---------9---------9---9--9--9---------|
A|-7-7-7-7-7-7-7---7-7-7-7-7-7-7-7---7-7-7-7---7-7-7-7---7--7--7-----------|
E|-------------------------------------------------------------------------|

G|-------------------------------------------------------------------------|
D|-------------------------------------------------------------------------|
A|----3--3--3--3---3--3--3--3--3--3-3---3---3--3--3--3--3------------------|
E|--------------------------------------------------------5--5--3--2--0----|

G|-------------------------------------------------------------------------|
D|---------------9-----------------9---------9---------9---9--9--9---------|
A|-7-7-7-7-7-7-7---7-7-7-7-7-7-7-7---7-7-7-7---7-7-7-7---7--7--7-----------|
E|-------------------------------------------------------------------------|


| /  slide up
| \  slide down
| h  hammer-on
| p  pull-off
| ~  vibrato
| +  harmonic
| x  Mute note
===========================================================================
            
Submit corrections

↑ Back to top | Tablatures and chords for acoustic guitar and electric guitar, ukulele, drums are parodies/interpretations of the original songs. You may use it for private study, scholarship, research or language learning purposes only