Home » S » Spoon »

Spoon - Beast And Dragon Adored Ukulele

Artists:  A B C D E F G H I J K L M N O P Q R S T U V W X Y Z # 

Beast And Dragon Adored Ukulele

(Version #1)
Spoon
-------------------------------------------------------------------------------
                   THE BEAST AND DRAGON, ADORED - Spoon
-------------------------------------------------------------------------------

Tuning: Standard

2x
e|---------------------------------------------------------------------------|
B|---------------------------------------------------------------------------|
G|---------------------------------------------------------------------------|
D|---------------------------------------------------------------------------|
A|---------------------------------------------------------------------------|
E|--8--8--5--5--4--4--1--1--8--8--5--5--4--4--1--1---------------------------|

1st verse
e|---------------------------------------------------------------------------|
B|---------------------------------------------------------------------------|
G|---------------------------------------------------------------------------|
D|---------------------------------------------------------------------------|
A|--7----7-----7--8----8----8--8--9----9----8----8----8----------------------|
E|--8----8-----8--8----8----8--8--8----8----8----8----8----------------------|

1st prechorus
e|---------------------------------------------------------------------------|
B|---------------------------------------------------------------------------|
G|---------------------------------------------------------------------------|
D|---------------------------------------------------------------------------|
A|--7-----7-----3-----3-----3-----3------8-----8--8--------------------------|
E|--8-----8-----5-----5-----4-----4------6-----6--6--------------------------|

2nd verse
e|---------------------------------------------------------------------------|
B|---------------------------------------------------------------------------|
G|---------------------------------------------------------------------------|
D|---------------------------------------------------------------------------|
A|--10----10-----10--11-----11----11--11--12----12----11--11--11-------------|
E|---8-----8------8---8------8-----8---8---8-----8-----8---8---8-------------|

2nd prechorus
e|---------------------------------------------------------------------------|
B|---------------------------------------------------------------------------|
G|---------------------------------------------------------------------------|
D|---------------------------------------------------------------------------|
A|--10-----10-----6-----6-----3-----3-----8-----8----------------------------|
E|---8------8-----4-----4-----1-----1-----6-----6----------------------------|

1st chorus
e|---------------------------------------------------------------------------|
B|---------------------------------------------------------------------------|
G|---------------------------------------------------------------------------|
D|---------------------------------------------------------------------------|
A|--3--3--3--3--5--5--5--5--10--10--10--10--3--3--3--3--3--------------------|
E|--1--1--1--1--3--3--3--3---8---8---8---8--1--1--1--1--1--------------------|

e|---------------------------------------------------------------------------|
B|---------------------------------------------------------------------------|
G|---------------------------------------------------------------------------|
D|---------------------------------------------------------------------------|
A|--3--3--3--3--5--5--5--5--2--2--2--2--3--3--3--3--3--3--3--3---------------|
E|--1--1--1--1--3--3--3--3--0--0--0--0--1--1--1--1--1--1--1--1---------------|

2nd verse riff
2nd prechorus riff

2nd chorus
e|---------------------------------------------------------------------------|
B|---------------------------------------------------------------------------|
G|---------------------------------------------------------------------------|
D|---------------------------------------------------------------------------|
A|--3--3--3--3--5--5--5--5--10--10--10--10--10--3--3--3--3-------------------|
E|--1--1--1--1--3--3--3--3---8---8---8---8---8--1--1--1--1-------------------|

e|---------------------------------------------------------------------------|
B|---------------------------------------------------------------------------|
G|---------------------------------------------------------------------------|
D|---------------------------------------------------------------------------|
A|--15--15--15--15--5--5--5--5--2--2--2--2--3--3--3--3-----------------------|
E|--13--13--13--13--3--3--3--3--0--0--0--0--1--1--1--1-----------------------|

e|---------------------------------------------------------------------------|
B|---------------------------------------------------------------------------|
G|---------------------------------------------------------------------------|
D|---------------------------------------------------------------------------|
A|--3--3--3--3--5--5--5--5--10--10--10--10--10--3--3--3--3-------------------|
E|--1--1--1--1--3--3--3--3---8---8---8---8---8--1--1--1--1-------------------|

e|---------------------------------------------------------------------------|
B|---------------------------------------------------------------------------|
G|---------------------------------------------------------------------------|
D|---------------------------------------------------------------------------|
A|--12--12--12--12--12--5--5--5--5--2--2--2--2--3--3--3--3-------------------|
E|--10--10--10--10--10--3--3--3--3--0--0--0--0--1--1--1--1-------------------|

e|---------------------------------------------------------------------------|
B|---------------------------------------------------------------------------|
G|---------------------------------------------------------------------------|
D|---------------------------------------------------------------------------|
A|--2--2--2--2--3--3--3--3--3--3--3--3---------------------------------------|
E|--0--0--0--0--1--1--1--1--1--1--1--1---------------------------------------|

3rd verse
e|---------------------------------------------------------------------------|
B|---------------------------------------------------------------------------|
G|---------------------------------------------------------------------------|
D|---------------------------------------------------------------------------|
A|--10----10----10--11--11----11--12----12----12----8--8--8--8---------------|
E|---8-----8-----8---8---8-----8---8-----8-----8----6--6--6--6---------------|

| /  slide up
| \  slide down
| h  hammer-on
| p  pull-off
| ~  vibrato
| +  harmonic
| x  Mute note
===============================================================================
            
Submit corrections

↑ Back to top | Tablatures and chords for acoustic guitar and electric guitar, ukulele, drums are parodies/interpretations of the original songs. You may use it for private study, scholarship, research or language learning purposes only