Home » S » Spoon »

Spoon - Anything You Want Tabs

Artists:  A B C D E F G H I J K L M N O P Q R S T U V W X Y Z # 

Anything You Want Tabs

(ver. 1) Click to play this song!
Spoon
-------------------------------------------------------------------------------
-------------------------------------------------------------------------------
Tuning: Standard

i dont know what was up with the first one but it was wrong.

intro/verse
  A or A5   E or E5  B or B5
e|---------------------------------------------------------------------------|
B|---------------------------------------------------------------------------|
G|-2-2-2------4-4-4----------------------------------------------------------|
D|-2-2-2-2~---4-4-4-2~-------------------------------------------------------|
A|-0-0-0-2~---2-2-2-2~-------------------------------------------------------|
E|-------0~---------0~-------------------------------------------------------|

chorus pt1
  A   A/G#   F#
e|-------------------2~--2-22------------------------------------------------|
B|----2-------2------2~--2-22------------------------------------------------|
G|------2-------2----3~--4-43------------------------------------------------|
D|--------2-------2--4~--4-44------------------------------------------------|
A|-0~----------------4~--4-44------------------------------------------------|
E|----------4~-------2~--2-22------------------------------------------------|

chorus pt 2
  A or A5  A/G#    B or B5  E or E5
e|----------|-----------|----------------------------------------------------|
B|----------|-----------|----------------------------------------------------|
G|-2-2-2-2~-|-----------|--4-4-4---------------------------------------------|
D|-2-2-2-2~-OR--7-7-7---|--4-4-4-2~------------------------------------------|
A|-0-0-0----|---7-7-7-7~|--2-2-2-2~------------------------------------------|
E|-------4~-|---5-5-5-4~|--------0~------------------------------------------|

play verse

play chorus pt 1

play chorus pt 2

END

| /  slide up
| \  slide down
| h  hammer-on
| p  pull-off
| ~  vibrato
| +  harmonic
| x  Mute note
===============================================================================
            
Submit corrections

↑ Back to top | Tablatures and chords for acoustic guitar and electric guitar, ukulele, drums are parodies/interpretations of the original songs. You may use it for private study, scholarship, research or language learning purposes only