» » »

Sponge Bob - Jellyfish Jam Tabs

Artists:  A B C D E F G H I J K L M N O P Q R S T U V W X Y Z # 

Jellyfish Jam Tabs

(ver. 1) Click to play this song!
Sponge Bob
 Rating:
4.3/5 (28 votes)

 Jellyfish Jam  lessons Tabs too difficult? Try these video lessons and learn fast
 
                e|-----x-x-x-x---x-x-x-x-----|
B|-----x-x-x-x---x-x-x-x-----|
G|-----9-9-9-9---9-9-9-9-----|
D|-----x-x-x-x---x-x-x-x-----| x 5
A|-----7-7-7-7---7-7-7-7-----|
E|-----0-0-0-0---0-0-0-0-----|

e|-----x-x-x-x---x-------------------------------------------------------------|
B|-----x-x-x-x---x-------------------------------------------------------------|
G|-----9-9-9-9---9-------9-1-1-1-1-9h11-1-1-1-1-----9-1-1-1-1-9h11-9-9-1-1-----|
D|-----x-x-x-x---x-9-1-1------------------------1-1----------------------------|
A|-----7-7-7-7---7-------------------------------------------------------------|
E|-----0-0-0-0---0-------------------------------------------------------------|

e|--------------------------------------------------|
B|----------------------------10-10--10-10-10-------|
G|-----11*-11-9h11-11-11-9h11-------9---------11----|
D|--------------------------------------------------|
A|--------------------------------------------------|
E|--------------------------------------------------|

e|-------------------------------------------------|
B|-------------------------------------------------|
G|-----11-11-9h11-11-11----9-11-11-9h11-9-9-11-----|
D|----------------------11-------------------------|
A|-------------------------------------------------|
E|-------------------------------------------------|

e|--------------------------------------------------|
B|----------------------------10-10--10-10-10-------|
G|-----11*-11-9h11-11-11-9h11-------9---------11----|
D|--------------------------------------------------|
A|--------------------------------------------------|
E|--------------------------------------------------|

e|-----9-9-----------9~-9-9--------------------|
B|--------1010-12-12-------1010-12-121212~-----|
G|---------------------------------------------|
D|---------------------------------------------| x 3
A|---------------------------------------------|
E|---------------------------------------------|

e|-----9-9-----------9~-9-9-----------------------------------------------------------|
B|--------1010-12-12-------1010-12----------------------------------------------------|
G|--------------------------------------9-11-11-9h11-11-11----9-11-11-9h11-9-9-11-----|
D|---------------------------------9-11--------------------11-------------------------|
A|------------------------------------------------------------------------------------|
E|------------------------------------------------------------------------------------|

e|----------------------------------------------------|
B|----------------------------10-10--10-10-10---------|
G|------11-11-9h11-11-11-9h11-------9---------11\-----|
D|----------------------------------------------------| PAUSE!
A|----------------------------------------------------|
E|----------------------------------------------------|            
Submit corrections


        Jellyfish Jam  lessons Hard to play? Try these video lessons and learn fast Jellyfish Jam  lessons
        
↑ Back to top | Tablatures and chords for acoustic guitar and electric guitar, ukulele, drums are parodies/interpretations of the original songs. You may use it for private study, scholarship, research or language learning purposes only