Home » S » Spoken »

Spoken - Close Your Eyes Tabs

Artists:  A B C D E F G H I J K L M N O P Q R S T U V W X Y Z # 

Close Your Eyes Tabs

(ver. 1) Click to play this song!
Spoken
 Rating:
4.3/5 (26 votes)
                [Intro]

e|----------------------------------------------------------------------------------------|
B|----------------------------------------------------------------------------------------|
G|----------------------------------------------------------------------------------------|
D|-2-2-2-|-4\--------2-2---4\------2-2-2-4\---------2-2---4-4-4-4-4-4-4-4-2-2-2-2-2-2-2---|
A|-2-2-2-|-4\--------2-2---4\------2-2-2-4\---------2-2---4-4-4-4-4-4-4-4-2-2-2-2-2-2-2---|
D|-2-2-2-|-4\--------2-2---4\------2-2-2-4\---------2-2---4-4-4-4-4-4-4-4-2-2-2-2-2-2-2---|
   * * *             *             * * *            *                             *


[Verse]

e|------------------------------------------0--------------------------------|
B|------------------------------------------0--------------------------------|
G|------------------------------------------7--------------------------------|
D|-4------------------------7---7-7-9---9-9-7--------------------------------|
A|-4------------------------7---7-7-9---9-9-5--------------------------------|
D|-4------------------------7---7-7-9---9-9-0--------------------------------|
                                * *     * *

e|------------------------------------------0--------------------------------|
B|------------------------------------------0--------------------------------|
G|------------------------------------------7--------------------------------|
D|-4------------------------7---7-7-2---2-2-7--------------------------------|
A|-4------------------------7---7-7-2---2-2-5--------------------------------|
D|-4------------------------7---7-7-2---2-2-0--------------------------------|
                                * *     * *

[Pre-Chorus]

e|----------------------------------------------------------------------------------------|
B|----------------------------------------------------------------------------------------|
G|----------------------------------------------------------------------------------------|
D|-2-2-2-|-4\--------2-2---4\------2-2-2-4\---------2-2---4-4-4-4-4-4-4-4-2-2-2-2-2-2-2---|
A|-2-2-2-|-4\--------2-2---4\------2-2-2-4\---------2-2---4-4-4-4-4-4-4-4-2-2-2-2-2-2-2---|
D|-2-2-2-|-4\--------2-2---4\------2-2-2-4\---------2-2---4-4-4-4-4-4-4-4-2-2-2-2-2-2-2---|
   * * *             *             * * *            *                             * * *


[Chorus]

e|--------------------------------------------------------------------------------------------------|
B|--------------------------------------------------------------------------------------------------|
G|--------------------------------------------------------------------------------------------------|
D|-4---4---4---4---7-7-7-7-7-7-9-9-4---4---4---4---7-7-7-7-9-9-9---0-------0-------0-------0---7-7-7|
A|-4---4---4---4---7-7-7-7-7-7-9-9-4---4---4---4---7-7-7-7-9-9-9---0-------0-------0-------0---7-7-7|
D|-4---4---4---4---7-7-7-7-7-7-9-9-4---4---4---4---7-7-7-7-9-9-9---0-------0-------0-------0---7-7-7|
                           * *                         * *

e|---------------------------------------------------------------------------------------------------------|
B|---------------------------------------------------------------------------------------------------------|
G|---------------------------------------------------------------------------------------------------------|
D|-4---4---4---4---7-7-7-7-7-7-9-9-4---4---4---4---7-7-7-7-9-9-9---0-------0-------0-------0---0-0-7---7-7-|
A|-4---4---4---4---7-7-7-7-7-7-9-9-4---4---4---4---7-7-7-7-9-9-9---0-------0-------0-------0---0-0-7---7-7-|
D|-4---4---4---4---7-7-7-7-7-7-9-9-4---4---4---4---7-7-7-7-9-9-9---0-------0-------0-------0---0-0-7---7-7-|
                           * *                         * *                                     * *     * *

[Pre-Chorus]


[Chorus]


[Bridge]

e|------------------------------------------------------|
B|------------------------------------------------------|
G|------------------------------------------------------|
D|-4---4---4\------------4---4---x-4---0-------7--------|
A|-4---4---4\------------4---4---x-4---0-------7--------|
D|-4---4---4\------------4---4---x-4---0-------7--------|

e|------------------------------------------------------|
B|------------------------------------------------------|
G|------------------------------------------------------|
D|-4---4---x-4-----------4---4---x-4---0-------7--------| x3
A|-4---4---x-4-----------4---4---x-4---0-------7--------|
D|-4---4---x-4-----------4---4---x-4---0-------7--------|


[Break]

e|-------------|
B|-------------|
G|-------------|
D|-4---4---x-4-| x4
A|-4---4---x-4-|
D|-4---4---x-4-|


[Final Chorus]

e|----------------------------------------------------------------------------------------------|
B|----------------------------------------------------------------------------------------------|
G|----------------------------------------------------------------------------------------------|
D|-4---4---4---4---7-7-7-7-7-7-9-9-4---4---4---4---7-7-7-7-9-9-0-------0-------0-------0---7-7-7|
A|-4---4---4---4---7-7-7-7-7-7-9-9-4---4---4---4---7-7-7-7-9-9-0-------0-------0-------0---7-7-7|
D|-4---4---4---4---7-7-7-7-7-7-9-9-4---4---4---4---7-7-7-7-9-9-0-------0-------0-------0---7-7-7|
                           * *                         * *

e|---------------------------------------------------------------------------------------|
B|---------------------------------------------------------------------------------------|
G|---------------------------------------------------------------------------------------|
D|-4---4---4---4---7-7-7-7-7-7-9-9-4---4---4---4---7-7-7-7-9-9-0-------0-------0-------0-|
A|-4---4---4---4---7-7-7-7-7-7-9-9-4---4---4---4---7-7-7-7-9-9-0-------0-------0-------0-|
D|-4---4---4---4---7-7-7-7-7-7-9-9-4---4---4---4---7-7-7-7-9-9-0-------0-------0-------0-|
                           * *                         * *

[Outro]

e|----------------------------------------------------------|
B|----------------------------------------------------------|
G|----------------------------------------------------------|
D|-2-2-2-|-4\--------2-2---4\------2-2-2-4\---------2-2---4-|
A|-2-2-2-|-4\--------2-2---4\------2-2-2-4\---------2-2---4-|
D|-2-2-2-|-4\--------2-2---4\------2-2-2-4\---------2-2---4-|



~LEAD GUITAR~

[Intro]

e|------|---------------------------------------------------------------------|
B|-7---7|-------7---7---7-------7---7---7-------7---7-------------------------|
G|---6--|-9-6-----6---6---9-6-----6---6---9-6-----6---6-6-7-9-6-6-6-----------|
D|------|---------------------------------------------------------------------|
A|------|---------------------------------------------------------------------|
D|------|---------------------------------------------------------------------|
                  *               *               *   * *     * * *

e|------|---------------------------------------------------------------------|
B|-7---7|-------7---7---7-------7---7---7-------7---7-7---7-5-5-5-5-----------|
G|-6-6--|-9-6-----6---6---9-6-----6---6---9-6-----6---6---6-4-4-4-4-----------|
D|------|---------------------------------------------------------------------|
A|------|---------------------------------------------------------------------|
D|------|---------------------------------------------------------------------|
                  *               *               *            
Submit corrections

↑ Back to top | Tablatures and chords for acoustic guitar and electric guitar, ukulele, drums are parodies/interpretations of the original songs. You may use it for private study, scholarship, research or language learning purposes only