» » »

Spiritfall - Will You Cry For Me? Tabs

Artists:  A B C D E F G H I J K L M N O P Q R S T U V W X Y Z # 

Will You Cry For Me? Tabs

(ver. 1) Click to play this song!
Spiritfall
 Rating:
4/5 (4 votes)

 Will You Cry For Me? lessons Tabs too difficult? Try these video lessons and learn fast
 
                
Intro      1x (clean or jazz effect)
Verse    2x
Chorus  1x (distortion)
Verse    2x (back to clean)
Chorus  2x (distortion)
Verse    2x (distortion)
Chorus  2x
Solo      2x
Chorus  6x

Intro/Verse:
-9-9-9-9-9-9-9-7-7-7-7-7-7----------------------------------------------------
-9-9-9-9-9-9-9-7-7-7-7-7-7-9-9-9-9-9-9-12-12-12-12----------------------------
-7-7-7-7-7-7-7-5-5-5-5-5-5-9-9-9-9-9-9-12-12-12-12----------------------------
---------------------------7-7-7-7-7-7-10-10-10-10----------------------------
                                                                              
Chorus: (What if i'm broken
-9-9-9-9------------------9-9-9-9------------------9-9-9-9--------------------
-9-9-9-9-9-9-9-9-10-10-10-9-9-9-9-9-9-9 9-10-10-10-9-9-9-9-9-9-9-9-12-12-12---
-7-7-7-7-9-9-9-9-10-10-10-7-7-7-7-9-9-9-9-10-10-10-7-7-7-7-9-9-9-9-10-10-10---
---------7-7-7-7--8--8--8---------7-7-7-7--8--8--8---------7-7-7-7-10-10-10---
                                                                              
Solo type thing:
-9-9-9-11-12-9-9-9-11-12-9-9-9-11-12-14-12-11---------------------------------
-x-x-x--x--x-x-x-x--x--x-x-x-x--x--x--x--x--x---------------------------------
-7-7-7--9-10-7-7-7--9-10-7-7-7--9-10-12-10--9---------------------------------
            
Submit corrections


        Will You Cry For Me? lessons Hard to play? Try these video lessons and learn fast Will You Cry For Me? lessons
        
↑ Back to top | Tablatures and chords for acoustic guitar and electric guitar, ukulele, drums are parodies/interpretations of the original songs. You may use it for private study, scholarship, research or language learning purposes only