» » »

Spineshank - Synthetic - Spineshank Tabs

Artists:  A B C D E F G H I J K L M N O P Q R S T U V W X Y Z # 

Synthetic - Spineshank Tabs

(ver. 1) Click to play this song!
Spineshank
 Rating:
4/5 (4 votes)

 Synthetic - Spineshank lessons Tabs too difficult? Try these video lessons and learn fast
 
                --==|Intro|==--


(This is strummed very quickly, I laid it out like this so that it is easier to read)


e|-------------------------------------------------------------|
B|-------------------------------------------------------------|
G|-3-3-3-3-3-5-5-6-6-6-6-6-5-5-6-6-6-6-6-6-6-6-6-6-6-6-6-6-6-6-|
D|-3-3-3-3-3-5-5-6-6-6-6-6-5-5-4-4-4-4-4-4-4-4-4-4-4-4-4-4-4-4-| [x2]
A|-1-1-1-1-1-3-3-4-4-4-4-4-3-3-4-4-4-4-4-4-4-4-4-4-4-4-4-4-4-4-|
D|-----------------------------4-4-4-4-4-4-4-4-4-4-4-4-4-4-4-4-|

--==|Verse|==--


** Just Vocals, bass and drums **


--==|Pre-Chorus|==--

e|-------------------------------------------------------------|
B|-------------------------------------------------------------|
G|-------------------------------------------------------------|
D|-3--3-3-3-4--1--1--1--1-1-1----------------------------------| [x2]
A|-3--3-3-3-4--1--1--1--1-1-1----------------------------------|
D|-3--3-3-3-4--1--1--1--1-1-1----------------------------------|  


e|-------------------------------------------------------------|
B|-------------------------------------------------------------|
G|-5-5-5-5-5-5-4-4-4-11-11-11----------------------------------|
D|-x-x-x-x-x-x-x-x-x-x--x--x-----------------------------------|
A|-3-3-3-3-3-3-2-2-2-9--9--9-----------------------------------|
D|-------------------------------------------------------------|


--==|Chorus|==--


e|-------------------------------------------------------------|
B|-------------------------------------------------------------|
G|-3-3-3-3-3-5-5-6-6-6-6-6-5-5-6-6-6-6-6-6-6-6-6-6-6-6-6-6-6-6-|
D|-3-3-3-3-3-5-5-6-6-6-6-6-5-5-4-4-4-4-4-4-4-4-4-4-4-4-4-4-4-4-| [x2]
A|-1-1-1-1-1-3-3-4-4-4-4-4-3-3-4-4-4-4-4-4-4-4-4-4-4-4-4-4-4-4-|
D|-----------------------------4-4-4-4-4-4-4-4-4-4-4-4-4-4-4-4-|


--==|2nd Verse|==--


** Just Vocals, bass and drums **


--==|2nd Pre-Chorus|==--

e|-------------------------------------------------------------|
B|-------------------------------------------------------------|
G|-------------------------------------------------------------|
D|-3--3-3-3-4--1--1--1--1-1-1----------------------------------| [x2]
A|-3--3-3-3-4--1--1--1--1-1-1----------------------------------|
D|-3--3-3-3-4--1--1--1--1-1-1----------------------------------|  


e|-------------------------------------------------------------|
B|-------------------------------------------------------------|
G|-5-5-5-5-5-5-4-4-4-11-11-11----------------------------------|
D|-x-x-x-x-x-x-x-x-x-x--x--x-----------------------------------|
A|-3-3-3-3-3-3-2-2-2-9--9--9-----------------------------------|
D|-------------------------------------------------------------|


--==|2nd Chorus|==--


e|-------------------------------------------------------------|
B|-------------------------------------------------------------|
G|-3-3-3-3-3-5-5-6-6-6-6-6-5-5-6-6-6-6-6-6-6-6-6-6-6-6-6-6-6-6-|
D|-3-3-3-3-3-5-5-6-6-6-6-6-5-5-4-4-4-4-4-4-4-4-4-4-4-4-4-4-4-4-| [x2]
A|-1-1-1-1-1-3-3-4-4-4-4-4-3-3-4-4-4-4-4-4-4-4-4-4-4-4-4-4-4-4-|
D|-----------------------------4-4-4-4-4-4-4-4-4-4-4-4-4-4-4-4-|


--==|Breakdown|==--

e|-------------------------------------------------------------|
B|-------------------------------------------------------------|
G|-5-5-5-5-5-5-4-4-4-11-11-11----------------------------------|
D|-x-x-x-x-x-x-x-x-x-x--x--x-----------------------------------|
A|-3-3-3-3-3-3-2-2-2-9--9--9-----------------------------------|
D|-------------------------------------------------------------|


e|-------------------------------------------------------------|
B|-------------------------------------------------------------|
G|-5--5-5-5-5-4--4-11-11-11-11-11-11---------------------------|
D|-5--5-5-5-5-4--4-11-11-11-11-11-11---------------------------| [x2]
A|-3--3-3-3-3-2--2-9--9--9--9--9--9----------------------------|
D|-------------------------------------------------------------|


...Gap...(I will never follow you...etc)


e|-------------------------------------------------------------|
B|-------------------------------------------------------------|
G|-5-5-5-5-5-5-4-4-4-11-11-11----------------------------------|
D|-x-x-x-x-x-x-x-x-x-x--x--x-----------------------------------| [x2]
A|-3-3-3-3-3-3-2-2-2-9--9--9-----------------------------------|
D|-------------------------------------------------------------|

--==|3rd Chorus|==--


e|-------------------------------------------------------------|
B|-------------------------------------------------------------|
G|-3-3-3-3-3-5-5-6-6-6-6-6-5-5-6-6-6-6-6-6-6-6-6-6-6-6-6-6-6-6-|
D|-3-3-3-3-3-5-5-6-6-6-6-6-5-5-4-4-4-4-4-4-4-4-4-4-4-4-4-4-4-4-| [x4]
A|-1-1-1-1-1-3-3-4-4-4-4-4-3-3-4-4-4-4-4-4-4-4-4-4-4-4-4-4-4-4-|
D|-----------------------------4-4-4-4-4-4-4-4-4-4-4-4-4-4-4-4-|


--==|Outro|==--


e|-------------------------------------------------------------|
B|-------------------------------------------------------------|
G|-------------------------------------------------------------|
D|-3--3-3-3-4--1--1--1--1-1-1----------------------------------| [x4]
A|-3--3-3-3-4--1--1--1--1-1-1----------------------------------|
D|-3--3-3-3-4--1--1--1--1-1-1----------------------------------|  


--==|Lyrics|==--

I can never feel the way you do 
But it still becomes me now 
I can't take the way you do 
But it's still inside me 

Synthetic solution 
Synthetic, I'll become 
Synthetic, if it makes this go away 

Still I waste another day of my life 
And it sickens me to feel this way 
Now I can't make up my mind, is this right 
How I let you get inside of me? 

Twist my words the way that you do 
'Cause it falls on deaf ears now 
Still, I've learned to numb your views 
But they're still inside me 

Synthetic solution 
Synthetic, I'll become 
Synthetic if it makes this go away 

Still I waste another day of my life 
And it sickens me to feel this way 
Now I can't make up my mind, is this right 
Now I let you get inside of me? 

I will never follow you... 

At this time I thought I was myself 
And I thought I never could become you 
All this time I thought I was myself 
And I thought I never could become you 
Wrong 

Still I waste another day of my life 
And it sickens me to feel this way 
Now I can't make up my mind, is this right 

How I let you get inside of me? 

I have become synthetic
            
Submit corrections


        Synthetic - Spineshank lessons Hard to play? Try these video lessons and learn fast Synthetic - Spineshank lessons
        
↑ Back to top | Tablatures and chords for acoustic guitar and electric guitar, ukulele, drums are parodies/interpretations of the original songs. You may use it for private study, scholarship, research or language learning purposes only