» » »

Spineshank - Strictly Diesel Tabs

Artists:  A B C D E F G H I J K L M N O P Q R S T U V W X Y Z # 

Strictly Diesel Tabs

(ver. 1) Click to play this song!
Spineshank
 Rating:
4/5 (4 votes)

 Strictly Diesel lessons Tabs too difficult? Try these video lessons and learn fast
 
                TUNE DOWN 2 steps then drop the TOP string DOWN one step


0----1----0-----1/3----0---1-------0/1-----------------------------------------------

concieving nothing...
7---8\7---8/10-----7----8--------------------7---8\7---8/10-----7-----8--------------

at first it had to breathe...
7---7\7-----7/7----7----7----7-------------------------------------------------------
5---6\5-----6/8----5----6----6-------------------------------------------------------

grow...
3-3-3-3-3-3-3-3-3-3------------------------------------------------------------------
1-1-1-1-1-1-1-1-1-1------------------------------------------------------------------
--------------------------------0--1-1/3---0--1-0/1----------------------------------

you try to direct my sight...
7--7-----7-7/7--7---7----------------------------------------------------------------
5--5-----6-6/8--6---6----------------------------------------------------------------

remember to put the palm mutes and timing when necessary.
            
Submit corrections


        Strictly Diesel lessons Hard to play? Try these video lessons and learn fast Strictly Diesel lessons
        
↑ Back to top | Tablatures and chords for acoustic guitar and electric guitar, ukulele, drums are parodies/interpretations of the original songs. You may use it for private study, scholarship, research or language learning purposes only