» » »

Spineshank - Stillborn Tabs

Artists:  A B C D E F G H I J K L M N O P Q R S T U V W X Y Z # 

Stillborn Tabs

(ver. 1) Click to play this song!
Spineshank
 Rating:
4/5 (4 votes)

 Stillborn lessons Tabs too difficult? Try these video lessons and learn fast
 
                Spineshank- Stillborn
Album- Self destructive pattern
Tuning- A# F A# D# G C



Intro
|-----
|-----
|-----
|-3-3-
|-3-3-
|-3-3-    x a few times


|--------------
|--------------
|--------------
|-3-3--5-5--1-0
|-3-3--5-5--1-0
|-3-3--5-5--1-0


|--------------------
|--------------------
|--------------------
|-0-0-2-3--2-2--6-6-5
|-0-0-2-3--2-2--6-6-5
|-0-0-2-3--2-2--6-6-5


|------------------------------------------
|------------------------------------------
|------------------------------------------
|-7-7--7-7-10-10-10-10--9-9-9-9-10-10-10-10
|-5-5--5-5--8--8--8--8--7-7-7-7--8--8--8--8
|------------------------------------------

Chorus
|------------------
|------------------
|------------------
|-3-3---5-5-5-5-5-5
|-3-3---5-5-5-5-5-5
|-3-3---5-5-5-5-5-5

Well- i think thats it anyway- Maybe not the chorus but close enough,
The intro and other bits i think are correct. Please rate
            
Submit corrections


        Stillborn lessons Hard to play? Try these video lessons and learn fast Stillborn lessons
        
↑ Back to top | Tablatures and chords for acoustic guitar and electric guitar, ukulele, drums are parodies/interpretations of the original songs. You may use it for private study, scholarship, research or language learning purposes only