» » »

Spineshank - Smotherd Tabs

Artists:  A B C D E F G H I J K L M N O P Q R S T U V W X Y Z # 

Smotherd Tabs

(ver. 1) Click to play this song!
Spineshank
 Rating:
4/5 (4 votes)

 Smotherd lessons Tabs too difficult? Try these video lessons and learn fast
 
                Spinshank 
 Smothered
 Album????


  wazon????? hey pps this is a tab for spineshank smotherd its 
  probably rong but i gave it a try cos none of u could be arsked 
  to tab it , the first 1 was rong but i think this is right


 Tuning (Bb F Bb Eb G C)

intro
-------------------------------------------
-------------------------------------------
-------------------------------------------
----7-7-7-7---7-7-7-7---7-7-7-7---2-3------
----7-7-7-7---7-7-7-7---7-7-7-7---2-3------
----7-7-7-7---7-7-7-7---7-7-7-7---2-3------ x3



verse
-------------------------------------------
-------------------------------------------
----x9-x9-x9-x9---x5-x5-x5-x5---x2-x2------
--------------------------------x0-x0------
----x7-x7-x7-x7---x3-x3-x3-x3---x0-x0------
------------------------------------------  x3 palm muted 

2nd part of the verse
-------------------------------------------
-------------------------------------------
----9-(9-9-(9---5-5-5-5---2-2--------------
--------------------------0-0--------------
----7-(7-7-(7---3-3-3-3---0-0--------------
------------------------------------------- x3    clean    


chorus
------------------------------------------------------------
------------------------------------------------------------
------------------------------------------------------------
--7-7--9---3-3--5--0-0-2-----7-7--9--10-10--12--3-3--5------
--7-7------3-3-----0-0-------7-7-----10-10------3-3---------
--7-7------3-3-----0-0-------7-7-----10-10------3-3--------- x2



bit into verse
-------------------------------------------
-------------------------------------------
-------------------------------------------
----7-7-7-7---7-7-7-7---7-7-7-7---2-3------
----7-7-7-7---7-7-7-7---7-7-7-7---2-3------
----7-7-7-7---7-7-7-7---7-7-7-7---2-3------ x3

verse
-------------------------------------------
-------------------------------------------
----x9-x9-x9-x9---x5-x5-x5-x5---x2-x2------
--------------------------------x0-x0------
----x7-x7-x7-x7---x3-x3-x3-x3---x0-x0------
------------------------------------------  x3 palm muted 

2nd part of the verse
-------------------------------------------
-------------------------------------------
----9-(9-9-(9---5-5-5-5---2-2--------------
--------------------------0-0--------------
----7-(7-7-(7---3-3-3-3---0-0--------------
------------------------------------------- x3    clean


chorus
------------------------------------------------------------
------------------------------------------------------------
------------------------------------------------------------
--7-7--9---3-3--5--0-0-2-----7-7--9--10-10--12--3-3--5------
--7-7------3-3-----0-0-------7-7-----10-10------3-3---------
--7-7------3-3-----0-0-------7-7-----10-10------3-3--------- x2


bridge

----------------------------------------------------------
----------------------------------------------------------
---7-7---7-7-----5-5---5-5--------------------------------
-----------------3-3---3-3---------------------------------
---5-5---5-5-----3-3---3-3---------------------------------
---0-0---0-0-----3-3---3-3--------------------------------- x2


and thats it, some of its played in a different way but there is the right chords t play i think???
            
Submit corrections


        Smotherd lessons Hard to play? Try these video lessons and learn fast Smotherd lessons
        
↑ Back to top | Tablatures and chords for acoustic guitar and electric guitar, ukulele, drums are parodies/interpretations of the original songs. You may use it for private study, scholarship, research or language learning purposes only