» » »

Spineshank - Self Destructive Pattern Tabs

Artists:  A B C D E F G H I J K L M N O P Q R S T U V W X Y Z # 

Self Destructive Pattern Tabs

(ver. 1) Click to play this song!
Spineshank
 Rating:
4/5 (4 votes)

 Self Destructive Pattern lessons Tabs too difficult? Try these video lessons and learn fast
 
                Self destructive pattern
Spineshank

TUNING: A#, F, A#, D#, G, C

---------------------------------------------------------6-6-6-6-
-3-0-0-3-0-0-3-0-0-3-0-0-3-0-3-0-5-0-0-5-0-0-6-0-0-6-0-0-6-6-6-6-
-3-0-0-3-0-0-3-0-0-3-0-0-3-0-3-0-5-0-0-5-0-0-6-0-0-6-0-0-6-6-6-6-

PRE CHORUS (tremolo pick)
-7----10-----12-----13------------------------------------------
-5-----8-----10-----11------------------------------------------

CHORUS
----------------------------------------------------------0---0-
-7-7-7-7-7-7-2-2-2-3-3-3-5-5-5-5-7-7-7-7-7-7-2-2-2-5-5-5--0---0-
-7-7-7-7-7-7-2-2-2-3-3-3-5-5-5-5-7-7-7-7-7-7-2-2-2-5-5-5--0---0-

BRIDGE (repeat 4xs)
-7-7-7-10-10-10--9-9-9-13-13-13-12-12-10-10---------------------


 BRIDGE (heavy) 32nd notes then pick full chords of these notes
-0----3----2----6----5-----3------------------------------------


LAST BAR OF THE LAST CHORUS
-7-7-7-7-7-7-2-2-2-3-3-3-5-5-5-5-7-7-7-7-7-7-2-2-2-3-3-3-0-0-0-0-0-0-0-0-0-0-0-0-
-7-7-7-7-7-7-2-2-2-3-3-3-5-5-5-5-7-7-7-7-7-7-2-2-2-3-3-3-0-0-0-0-0-0-0-0-0-0-0-0-
                                                        PM[----------------------]
            
Submit corrections


        Self Destructive Pattern lessons Hard to play? Try these video lessons and learn fast Self Destructive Pattern lessons
        
↑ Back to top | Tablatures and chords for acoustic guitar and electric guitar, ukulele, drums are parodies/interpretations of the original songs. You may use it for private study, scholarship, research or language learning purposes only