» » »

Spineshank - Consumed Obsessive Compulsive Tabs

Artists:  A B C D E F G H I J K L M N O P Q R S T U V W X Y Z # 

Consumed Obsessive Compulsive Tabs

(ver. 1) Click to play this song!
Spineshank
 Rating:
4/5 (4 votes)

 Consumed Obsessive Compulsive lessons Tabs too difficult? Try these video lessons and learn fast
 
                Band: Spineshank
Tuning: Drop A (A# F A# D# G C)

Legend
PM- Palm Mute
~- Sustain note

Intro
|-----------------|
|-----------------|
|-----------------|
|-343334333433343-|
|-343334333433343-|
|-343334333433343-|

Verse: Play x2
(might be bass i heard, but it livens up the verse either way)
|-----------------------------------------------------------------|
|-----------------------------------------------------------------|
|-----------------------------------------------------------------|
|-----------------------------------------------------------------|
|-----------------------------------------------------------------|
|-7-7-7-7-7-7-7-7-7-7-7-7-7-7-7-7-4-4-4-4-4-4-4-4-4-4-4-4-4-4-4-4-|
PM. . . . . . . . . . . . . . . . . . . . . . . . . . . . . . . .

|-----------------------------------------------------------------|
|-----------------------------------------------------------------|
|-----------------------------------------------------------------|
|-----------------------------------------------------------------|
|-----------------------------------------------------------------|
|-0-0-0-0-0-0-0-0-0-0-0-0-0-0-0-0-2-2-2-2-2-2-2-2-2-2-2-2-2-2-2-2-|
PM. . . . . . . . . . . . . . . . . . . . . . . . . . . . . . . .

Pre Chorus: x2
|----------------------------------------|
|----------------------------------------|
|----------------------------------------|
|----------------------------------------|
|-555--777--555--777--555--888--555--777-|
|-555--777--555--777--555--888--555--777-|

Chorus: play once through, then on the second run only the first 6 chords
(NOTE: 12's, not 1's and 2's)
|----------------------------------------------------------|
|----------------------------------------------------------|
|----------------------------------------------------------|
|-5~--6~-11~-5~--6~-11~-12121212121212666666999999777-7-77-|
|-5~--6~-11~-5~--6~-11~-12121212121212666666999999777-7-77-|
|-5~--6~-11~-5~--6~-11~-12121212121212666666999999777-7-77-|

Back to the verse (different this time):
Play this part 3 times...
|-----------------------------------------------------------------|
|-----------------------------------------------------------------|
|-----------------------------------------------------------------|
|-------------------------------------------------34333433343-----|
|-------------------------------------------------34333433343-----|
|-7-7-7-7-7-7-7-7-4-4-4-4-4-4-4-4-0-0-0-0-0-0-0-0-34333433343-----|
PM. . . . . . . . . . . . . . . . . . . . . . . .

...then end with this
|-----------------------------------------------------------------|
|-----------------------------------------------------------------|
|-----------------------------------------------------------------|
|-----------------------------------------------------------------|
|-----------------------------------------------------------------|
|-7-7-7-7-7-7-7-7-4-4-4-4-4-4-4-4-0-0-0-0-0-0-0-0-2-2-2-2-2-2-2-2-|
PM. . . . . . . . . . . . . . . . . . . . . . . . . . . . . . . .

Pre Chrous again: x2
|----------------------------------------|
|----------------------------------------|
|----------------------------------------|
|----------------------------------------|
|-555--777--555--777--555--888--555--777-|
|-555--777--555--777--555--888--555--777-|

Chorus: x2
|----------------------------------------------------------|
|----------------------------------------------------------|
|----------------------------------------------------------|
|-5~--6~-11~-5~--6~-11~-12121212121212666666999999777-7-77-|
|-5~--6~-11~-5~--6~-11~-12121212121212666666999999777-7-77-|
|-5~--6~-11~-5~--6~-11~-12121212121212666666999999777-7-77-|

Breakdown time:

x1
|---------------------------------|
|---------------------------------|
|---------------------------------|
|-343334333433343-343334333433343-|
|-343334333433343-343334333433343-|
|-343334333433343-343334333433343-|

x2 
|------------------------------------------------------|
|------------------------------------------------------|
|------------------------------------------------------|
|-3-3--3--4-5--6-5-3-6-5-3--3-3-3--3--4-5--6-5-3-6-5-3-|
|-3-3--3--4-5--6-5-3-6-5-3--3-3-3--3--4-5--6-5-3-6-5-3-|
|-3-3--3--4-5--6-5-3-6-5-3--3-3-3--3--4-5--6-5-3-6-5-3-|

x1
|-----------------------------------------------------|
|-----------------------------------------------------|
|-----------------------------------------------------|
|-7--7-7-7--6--7-9-8--7--7-7-7--6--7-9-8--7--7-7-7--6-|
|-7--7-7-7--6--7-9-8--7--7-7-7--6--7-9-8--7--7-7-7--6-|
|-7--7-7-7--6--7-9-8--7--7-7-7--6--7-9-8--7--7-7-7--6-|

x1
|------------------------------------------------------|
|------------------------------------------------------|
|------------------------------------------------------|
|-3-3-3--0--3-4--6-5--6-5--3-3-3--0--3-4--6-5--6-5-----|
|-3-3-3--0--3-4--6-5--6-5--3-3-3--0--3-4--6-5--6-5-----|
|-3-3-3--0--3-4--6-5--6-5--3-3-3--0--3-4--6-5--6-5-----|

"I never felt your emptyness..."
|----------------------------------------------------------|
|----------------------------------------------------------|
|----------------------------------------------------------|
|-------------------------------------------------34333430-|
|-------------------------------------------------34333430-|
|-5-5-5-5-5-5-5-5-3-3-3-3-3-3-3-3-0-0-0-0-0-0-0-0-34333430-|
PM. . . . . . . . . . . . . . . . . . . . . . . .

|-----------------------------------------------------------------|
|-----------------------------------------------------------------|
|-----------------------------------------------------------------|
|-----------------------------------------------------------------|
|-----------------------------------------------------------------|
|-5-5-5-5-5-5-5-5-3-3-3-3-3-3-3-3-0-0-0-0-0-0-0-0-3-3-3-3-3-3-3-3-|
PM. . . . . . . . . . . . . . . . . . . . . . . . . . . . . . . . 

"Obsessive with your reasons..." x1
|-------------------------------------------------------|
|-------------------------------------------------------|
|-88887777888888----------------88887777888888----------|
|-xxxxxxxxxxxxxx-99999999888888-xxxxxxxxxxxxxx-99999999-|
|-66665555666666-99999999888888-66665555666666-99999999-|
|----------------99999999888888----------------99999999-|

Pre Chorus: x2
|----------------------------------------|
|----------------------------------------|
|----------------------------------------|
|----------------------------------------|
|-555--777--555--777--555--888--555--777-|
|-555--777--555--777--555--888--555--777-|

Chorus x2
|----------------------------------------------------------|
|----------------------------------------------------------|
|----------------------------------------------------------|
|-5~--6~-11~-5~--6~-11~-12121212121212666666999999777-7-77-|
|-5~--6~-11~-5~--6~-11~-12121212121212666666999999777-7-77-|
|-5~--6~-11~-5~--6~-11~-12121212121212666666999999777-7-77-|

x4
|-----------------------|
|-----------------------|
|-----------------------|
|-5~--6~-11~-5~--6~-11~-|
|-5~--6~-11~-5~--6~-11~-|
|-5~--6~-11~-5~--6~-11~-|

"how could you live with yourself..." x4
|--------------------------------------------------------|
|--------------------------------------------------------|
|--------------------------------------------------------|
|-3-3-3--3--3-4--5-3-4-5-3-4--3-3-3--3--3-4--5-3-4-5-3-4-|
|-3-3-3--3--3-4--5-3-4-5-3-4--3-3-3--3--3-4--5-3-4-5-3-4-|
|-3-3-3--3--3-4--5-3-4-5-3-4--3-3-3--3--3-4--5-3-4-5-3-4-|

and thats it, ratings and comments are welcome
if you see any problems (which there are some)
tell me and ill fix em ;)
            
Submit corrections


        Consumed Obsessive Compulsive lessons Hard to play? Try these video lessons and learn fast Consumed Obsessive Compulsive lessons
        
↑ Back to top | Tablatures and chords for acoustic guitar and electric guitar, ukulele, drums are parodies/interpretations of the original songs. You may use it for private study, scholarship, research or language learning purposes only