» » »

Spineshank - 666synthetic666 Tabs

Artists:  A B C D E F G H I J K L M N O P Q R S T U V W X Y Z # 

666synthetic666 Tabs

(ver. 1) Click to play this song!
Spineshank
 Rating:
4/5 (4 votes)

 666synthetic666 lessons Tabs too difficult? Try these video lessons and learn fast
 
                intro/chorus

------------------------------------------
------------------------------------------
------------------------------------------
4-4-4-4-4-6-7-7-7-7-7-6-------------------
2-2-2-2-2-4-5-5-5-5-5-4-5-5-5-5-5-5-5-5-5-
------------------------3-3-3-3-3-3-3-3-3-

verse

-------------------------------------------
-------------------------------------------
-------------------------------------------
-------------------------------------------
-4-4-4-4-5-2-2-2-2-------------------------
-2-2-2-2-3-0-0-0-0-------------------------

---------------------------------------------------
---------------------------------------------------
---------------------------------------------------
-6-6-6-6-6-6-5-5-5-12-12-12------------------------
-x-x-x-x-x-x-x-x-x-x--x--x-------------------------
-4-4-4-4-4-4-3-3-3-10-10-10------------------------

---------------------------------------------------
---------------------------------------------------
---------------------------------------------------
-6-6-6-6-6--5-5-5-5-5------------------------------
-4-4-4-4-4--3-3-3-3-3-5-5-5-5----------------------
-4-4-4-4-4--3-3-3-3-3-3-3-3-3----------------------

-14-14-14-14-14--10-10-10-10-10--7-7-7-7-7--10-10-10-10-10--------
-12-12-12-12-12--8--8--8--8--8---5-5-5-5-5--8--8--8--8--8---------
-12-12-12-12-12--8--8--8--8--8---5-5-5-5-5--8--8--8--8--8---------
            
Submit corrections


        666synthetic666 lessons Hard to play? Try these video lessons and learn fast 666synthetic666 lessons
        
↑ Back to top | Tablatures and chords for acoustic guitar and electric guitar, ukulele, drums are parodies/interpretations of the original songs. You may use it for private study, scholarship, research or language learning purposes only