Home » S » Spider »

Spider - Salut Tabs

Artists:  A B C D E F G H I J K L M N O P Q R S T U V W X Y Z # 

Salut Tabs

(ver. 1) Click to play this song!
Spider
 Rating:
4/5 (4 votes)
                Tuning: Standard

riff 1
-----------------------------------------------------|
--------------------------------------------6--------|
---------5--------------9----------4--------7--------|
-------7-------------10----------5----------7--------|
-----7------------10-----------5--------4/5---5------|
-4/5----------7/8----------2/3------------------8-7--|

verse = play normal Am C G Dm

chorus
------------------------------------------|
------------------------------------------|
-------5---------5---------5----7---------|
--3----5----3----5----3----5----7----5----|
--3----3----3----3----3----3----5----5----|
--1---------1---------1--------------3----|

bridge = play F G Am Em F G Am Em...

riff 1 as solo part, intro, and outro
            
Submit corrections

↑ Back to top | Tablatures and chords for acoustic guitar and electric guitar, ukulele, drums are parodies/interpretations of the original songs. You may use it for private study, scholarship, research or language learning purposes only