Home » S » Spider »

Spider - Telinga Ke Tulang Chords

Artists:  A B C D E F G H I J K L M N O P Q R S T U V W X Y Z # 

Telinga Ke Tulang Chords

(ver. 1) Click to play this song!
Spider
 Rating:
4/5 (4 votes)
                Tuning: standard

bass intro
-----5--------------------|
-----------5-----6-----5--|
--3-----------------------|
--------3-----4-----3-----|

intro/chorus
part A                          part B
-----------------------------|------------------------|
-----------------------------|------------------------|
--5-5-5----------------------|--5-5-5-----------------|
--5-5-5-5-5-5-6-6-6-5-5-5----|--5-5-5-5-5-5-6---------|
--3-3-3-5-5-5-6-6-6-5-5-5----|--3-3-3-5-5-5-6--STOP!!-|
--------3-3-3-4-4-4-3-3-3----|--------3-3-3-4---------|
  x x   x x   x x   x x         x x   x x

verse (phase 1)
------3------3------4------3-|-----3------3------4------6---|
----4------3------4------3---|---4------3------4------6-----|
--5------4------5------4-----|-5------4------5------7-------|
-----------------------------|------------------------------|
-----------------------------|------------------------------|
-----------------------------|------------------------------|

------6------7------8--------10-|------4------4--4--4--4-4-4-4--|
----8------8------8-------11----|----4------4----4--4--4-4-4-4--|
--8------8------8------12-------|--5------5------5--5--5-5-5-5--|
--------------------------------|--6------6------6--6--6-6-6-6--|
--------------------------------|-------------------------------|
--------------------------------|-------------------------------|

-x-x-x-x-x---|
-x-x-x-x-x---|
-x-x-x-x-x---|
-x-x-x-x-x---|
-------------|
-------------|

verse (phase 2)
use a little ska-like upstrokes
part A                       part B
---3--|--3--|--4--|--3---||--6--|--3--|--3--|--3--|--4--|--6--|
---4--|--3--|--4--|--3---||--8--|--3--|--4--|--3--|--4--|--6--|
---5--|--4--|--5--|--4---||--8--|--4--|--5--|--3--|--5--|--7--|
---5--|--5--|--6--|--5---||--8--|--5--|--5--|--5--|--6--|--8--|
------|-----|-----|------||-----|-----|-----|-----|-----|-----|
------|-----|-----|------||-----|-----|-----|-----|-----|-----|

prechorus (let ring all chords)
makin hebat....           makin rumit....
----------------------|-------------------------------|
----------------------|-------------------------------|
---8----5-------------|---8------5--------------------|
---8----5----6----8---|---8------5------6------8---5--|
---6----3----6----8---|---6------3------6------8---5--|
-------------4----4---|-----------------4------6---3--|

interlude
part A                             part B
---------------------------------|------------------------------------------------|
------------------x4-------------|--------------4x--------------------------------|
---------------------------------|---8--8--8--8-5-5-5-5--4-4-4-4----  /=======----|
--10-10-10-10--6-6-6-6--5-5-5-5--|--10-10-10-10-6-6-6-6--5-5-5-5----  \\=======---|
---------------------------------|----------------------------------          ----|
---------------------------------|----------------------------------          ----|
   x  x        x x      x x          x  x       x x    ^^x x                   |
pd repeat yg trakhir part b, berhenti di_______________|| sini tanpa main kord |

solo
-----------X3--------------|----------------------------------------|
---------------------------|----------------------------------------|
--10---9-8-7--7-8-9-8-7-8--|----------------------------------------|
--10---9-8-7--7-8-9-8-7-8--|---x-x-x-x-x-x-x-x-x--------------------|
---8---7-6-5--5-6-7-6-5-6--|---x-x-x-x-x-x-x-x-x--------------------|
---------------------------|----------------------------------------|

ulang bass intro
kemudian main verse (phase 2) part b, tapi let ring all chords!
prechorus
chorus x4 part A
chorus x4 part a (palm mute all)
            
Submit corrections

↑ Back to top | Tablatures and chords for acoustic guitar and electric guitar, ukulele, drums are parodies/interpretations of the original songs. You may use it for private study, scholarship, research or language learning purposes only