» » »

Spice Girls - 2 Become 1 Tabs

Artists:  A B C D E F G H I J K L M N O P Q R S T U V W X Y Z # 

2 Become 1 Tabs

(ver. 2) Click to play this song!
Spice Girls
 Rating:
4/5 (4 votes)

 2 Become 1 lessons Tabs too difficult? Try these video lessons and learn fast
 
                -------------------------------------------------------------------------------
                             2 Become 1 Solo - Spice Girls
-------------------------------------------------------------------------------

Tuning: Standard

Roughly starts at 2:13.

e|--6--7--9--6---------------------------|
B|--------------7-----6--7--6h7p---------|
G|-----------------6--------------6--8---|
D|---------------------------------------|
A|---------------------------------------|
E|---------------------------------------|

e|---------------------------------------|
B|--------------7--------6--6--8--8--6h8-|
G|--6--4--6--3-----4--3------------------|
D|---------------------------------------|
A|---------------------------------------|
E|---------------------------------------|

e------------6-9-9/12--------------------|
B-----6-7-9------------------------------|
G-6-8------------------------------------|
D|---------------------------------------|
A|---------------------------------------|
E|---------------------------------------|


| h  hammer-on
| p  pull-off
            
Submit corrections


        2 Become 1 lessons Hard to play? Try these video lessons and learn fast 2 Become 1 lessons
        
↑ Back to top | Tablatures and chords for acoustic guitar and electric guitar, ukulele, drums are parodies/interpretations of the original songs. You may use it for private study, scholarship, research or language learning purposes only