» » »

Sparklehorse - King Of Nails Tabs

Artists:  A B C D E F G H I J K L M N O P Q R S T U V W X Y Z # 

King Of Nails Tabs

(ver. 2) Click to play this song!
Sparklehorse
 Rating:
2.1/5 (30 votes)

 King Of Nails lessons Tabs too difficult? Try these video lessons and learn fast
 
                Tuning:Standard   (Or You Can Bar it's Up to you)I Bar it cause it sounds better
Intro/Verse
e|-X------X---X---X-------X--------X---------X--------0-|
B|-X------X---X---X-------X--------X---------X--------0-|
G|-X------X---X---X-------X--------X---------X--------1-|
D|-9--X---9---X---7---X---7----X---5----X----5----X---2-|
A|-9--X---9---X---7---X---7----X---5----X----5----X---2-|
E|-7--X---8---X---5---X---4----X---3----X----2----X-----|

Restart Intro and Verse
e|--X--X---X--------X-------------------------X----------0-|
B|--X--X---X--------X-------------------------X----------0-|
G|--X--X---X--------X-------------------------X----------1-|
D|--9--X---9----X---7---X--7-----X--5----X----5-----X----2-|
A|--9--X---9----X---7---X--7-----X--5----X----5-----X----2-|
E|--7--X---8----X---5---X--4-----X--3----X----2-----X----0-|
Chorus
e|----------------------------------------------------------------------------|
B|----------------------------------------------------------------------------|
G|-------1-----------------------1--------------------------------------------|
D|-4/3---2---4/5---5--5---4/3----2---4/5--5---5-5/8------~8b--do this 8 times-|
A|-4/3---2---4/5---5--5---4/3----2---4/5--5---5-5/8---------------------------|
E|-2/1-------2/3---3--3---2/1--------2/3--3---3-3/6---------------------------|
Repeat Verse
e|-X------X---X---X-------X--------X---------X--------0-|
B|-X------X---X---X-------X--------X---------X--------0-|
G|-X------X---X---X-------X--------X---------X--------1-|
D|-9--X---9---X---7---X---7----X---5----X----5----X---2-|
A|-9--X---9---X---7---X---7----X---5----X----5----X---2-|
E|-7--X---8---X---5---X---4----X---3----X----2----X-----|

e|------------------0-0---X------------------0--0---------------------------------------------|
B|------------------0-0---X------------------0--0---------------------------------------------|
G|------------------1-1---X------------------1--1---------------------------------------------|
D|-5----5----7--7---2-2---X-----4---4--------2--2-----4---5--4--3--3-3--4--4--5----8----------|
A|-5----5----7--7---2-2---X-----4---4--------2--2-----4---5--4--3--3-3--4--4--5----8----------|
E|-3----2----5--4---------X-----2---1-----------------2---3--2--1--1-1--2--2--3----6----------|

Solo is kinda hard to figure out but my guess is this
e|---------------------------------------------------------------------------|
B|---------------------------------------------------------------------------|
G|--9b11-----8b10---10b12 12-12--11--12--11-12fb11---14b15-------------------|
D|-----------------------11--------------------------------------------------|
A|---------------------------------------------------------------------------|
E|---------------------------------------------------------------------------|

e|--------------------0---------------0---------------------------0-------------|---------0-------|
B|--------------------0---------------0---------------------------0-----------------------0-------|
G|--------------------1---------------1---------------------------1-----------------------1-------|
D|-4---7--7---5--5----2-----4-----3---2-----4---5--5--5--4--3-----2------4---5--4----3----2-------|
A|-4---7--7---5--5----2-----4-----3---2-----4---5--5--5--4--3-----2------4---5--4----3----2-------|
E|-2---5--4---3--2----------2-----1---------2---3--3--3--2--1------------2---3--2----1------------|

e|------------------------0---------------------------------------------------|
B|------------------------0---------------------------------------------------|
G|------------------------1---------------------------------------------------|
D|--4---5----5-5--4---3---2-----Repeat----------------------------------------|
A|--4---5----5-5--4---3---2---------------------------------------------------|
E|--2---3----3-3--2---1-------------------------------------------------------|

Repeat Solo and try to make it go longer and that's the end of this amazing song
e|---------------------------------------------------------------------------|
B|---------------------------------------------------------------------------|
G|--9b11-----8b10---10b12 12-12--11--12--11-12fb11---14b15-------------------|
D|-----------------------11--------------------------------------------------|
A|---------------------------------------------------------------------------|
E|---------------------------------------------------------------------------|            
Submit corrections


        King Of Nails lessons Hard to play? Try these video lessons and learn fast King Of Nails lessons
        
↑ Back to top | Tablatures and chords for acoustic guitar and electric guitar, ukulele, drums are parodies/interpretations of the original songs. You may use it for private study, scholarship, research or language learning purposes only