» » »

South Park - Quiero Vivir En South Park Tabs

Artists:  A B C D E F G H I J K L M N O P Q R S T U V W X Y Z # 

Quiero Vivir En South Park Tabs

(ver. 1) Click to play this song!
South Park
 Rating:
2.2/5 (26 votes)

 Quiero Vivir En South Park  lessons Tabs too difficult? Try these video lessons and learn fast
 
                   quiero vivir en south park       no paro de pensar en ti            
e:-2------------------------------------------------------2-|
B:-3----------------------2-------------------------2-----3-|
G:-2----------------------2-------------------------2-----2-|
D:-0----------------------2----4-4-4-4-4-4-4-4-4-4--2-----0-|
A:------------------------0----4-4-4-4-4-4-4-4-4-4--0-------|
E:-----------------------------2-2-2-2-2-2-2-2-2-2----------|

  en que cartman vomito...
e:------------------------------------|
B:------------------------------------|
G:-----------------------2-2---2------|
D:------2-2---2-2-2---2--0-0---0------|
A:------0-0---0-0-0---0------3----3-3-|
E:-3/5------3-------3-----------------|

e:-------------------------------|
B:-------------------------------|
G:------------------2-2---2------|
D:-2-2---2-2-2---2--0-0---0------|
A:-0-0---0-0-0---0------3----3-3-|
E:-----3-------3-----------------|

  en genialo...
e:-----------------------2-2-2-2-2--------------|
B:-2-2-2-2-2-------------3-3-3-3-3--------------|
G:-2-2-2-2-2--4-4-4-4-4--2-2-2-2-2--1-1-1-1-1-1-|
D:-2-2-2-2-2--5-5-5-5-5--0-0-0-0-0--2-2-2-2-2-2-|
A:-0-0-0-0-0--5-5-5-5-5-------------2-2-2-2-2-2-|
E:------------3-3-3-3-3-------------0-0-0-0-0-0-|


  no paro de pensar...         x2
e:-------------------------------|
B:-------------------------------|
G:------------------2-2---2------|
D:-2-2---2-2-2---2--0-0---0------|
A:-0-0---0-0-0---0------3----3-3-|
E:-----3-------3-----------------|
 
  en la navidad...
  gt1
e:-----------------------2-2-2-2-2-----------------------------------------------------|
B:-2-2-2-2-2-------------3-3-3-3-3-----------------------------------------------------|
G:-2-2-2-2-2--4-4-4-4-4--2-2-2-2-2-----------------------------------------------------|
D:-2-2-2-2-2--5-5-5-5-5--0-0-0-0-0-----------------------------------------------------|
A:-0-0-0-0-0--5-5-5-5-5-------------2--2-4-2--5-2--4-2--2-4-2--5-2--4-2--2-4-2--5-2--4-|
E:------------3-3-3-3-3-------------0--------------------------------------------------|
  gt2
e:------------------------------|
B:------------------------------|
G:-14~~~--12~~~~--11~~~~-9~~~~--|
D:------------------------------|
A:------------------------------|
E:------------------------------|

  quiero vivir en south park oh oh...
e:-2-2-2-2-2-2-2-2-2-2--------------------------------------|
B:-3-3-3-3-3-3-3-3-3-3--2-2-2-2-2-2-------------2-2-2-2-2-2-|
G:-2-2-2-2-2-2-2-2-2-2--2-2-2-2-2-2--3-3-3-3-3--2-2-2-2-2-2-|
D:-0-0-0-0-0-0-0-0-0-0--2-2-2-2-2-2--4-4-4-4-4--2-2-2-2-2-2-|
A:----------------------0-0-0-0-0-0--4-4-4-4-4--0-0-0-0-0-0-|
E:-----------------------------------2-2-2-2-2--------------|
   gt2
e:------------------------------------------------------------|
B:------------------------------------------------------------|
G:----------------------------5-6-5---------------------------|
D:----------------------------------8-6-----------------------|
A:------------------------------------------------------------|
E:------------------------------------------------------------|
  
  quiero todo south park...
e:-2-2-2-2-2-2-2-2-2-2------------------------------------|
B:-3-3-3-3-3-3-3-3-3-3--2-2-2-2-2-2-----------------------|
G:-2-2-2-2-2-2-2-2-2-2--2-2-2-2-2-2--3-3-3-3-3--2-2-2-2-2-|
D:-0-0-0-0-0-0-0-0-0-0--2-2-2-2-2-2--4-4-4-4-4--2-2-2-2-2-|
A:----------------------0-0-0-0-0-0--4-4-4-4-4--0-0-0-0-0-|
E:-----------------------------------2-2-2-2-2------------|
   gt2
e:------------------------------------------------------------|
B:------------------------------------------------------------|
G:----------------------------5-6-5---------------------------|
D:----------------------------------8-6-----------------------|
A:------------------------------------------------------------|
E:------------------------------------------------------------|
  
  en si garrison...            x2
e:-------------------------------|
B:-------------------------------|
G:------------------2-2---2------|
D:-2-2---2-2-2---2--0-0---0------|
A:-0-0---0-0-0---0------3----3-3-|
E:-----3-------3-----------------|

  en aquella...
e:-----------------------2-2-2-2-2--------------|
B:-2-2-2-2-2-------------3-3-3-3-3--------------|
G:-2-2-2-2-2--4-4-4-4-4--2-2-2-2-2--1-1-1-1-1-1-|
D:-2-2-2-2-2--5-5-5-5-5--0-0-0-0-0--2-2-2-2-2-2-|
A:-0-0-0-0-0--5-5-5-5-5-------------2-2-2-2-2-2-|
E:------------3-3-3-3-3-------------0-0-0-0-0-0-|

  gt1 quiero tocar con...     x2
e:-------------------------------|
B:-------------------------------|
G:------------------2-2---2------|
D:-2-2---2-2-2---2--0-0---0------|
A:-0-0---0-0-0---0------3----3-3-|
E:-----3-------3-----------------|
  gt2
e:------------------17b~~-------17~~~--|
B:------------------------20p17--------|
G:-------------------------------------|
D:-------------------------------------|
A:-------------------------------------|
E:-------------------------------------|

   y cuantas veces me rei...
e:-----------------------2-2-2-2-2--------------------------------------|
B:-2-2-2-2-2-------------3-3-3-3-3--------------------------------------|
G:-2-2-2-2-2--4-4-4-4-4--2-2-2-2-2--------------------------------------|
D:-2-2-2-2-2--5-5-5-5-5--0-0-0-0-0--------------------------------------|
A:-0-0-0-0-0--5-5-5-5-5-------------2--2-4-2--5-2--4-2--2-4-2--5-2--4-2-|
E:------------3-3-3-3-3-------------0-----------------------------------|


  quiero vivir en south park oh oh...
e:-2-2-2-2-2-2-2-2-2-2--------------------------------------|
B:-3-3-3-3-3-3-3-3-3-3--2-2-2-2-2-2-------------2-2-2-2-2-2-|
G:-2-2-2-2-2-2-2-2-2-2--2-2-2-2-2-2--3-3-3-3-3--2-2-2-2-2-2-|
D:-0-0-0-0-0-0-0-0-0-0--2-2-2-2-2-2--4-4-4-4-4--2-2-2-2-2-2-|
A:----------------------0-0-0-0-0-0--4-4-4-4-4--0-0-0-0-0-0-|
E:-----------------------------------2-2-2-2-2--------------|
   gt2
e:------------------------------------------------------------|
B:------------------------------------------------------------|
G:----------------------------5-6-5---------------------------|
D:----------------------------------8-6-----------------------|
A:------------------------------------------------------------|
E:------------------------------------------------------------|
  
  quiero todo south park...
e:-2-2-2-2-2-2-2-2-2-2---------------------------------|
B:-3-3-3-3-3-3-3-3-3-3--2-2-2-2-2-2----------------2-2-|
G:-2-2-2-2-2-2-2-2-2-2--2-2-2-2-2-2--3-3-3-3-3--2--2-2-|
D:-0-0-0-0-0-0-0-0-0-0--2-2-2-2-2-2--4-4-4-4-4--2--2-2-|
A:----------------------0-0-0-0-0-0--4-4-4-4-4--0--0-0-|
E:-----------------------------------2-2-2-2-2---------|
   gt2
e:------------------------------------------------------------|
B:------------------------------------------------------------|
G:----------------------------5-6-5---------------------------|
D:----------------------------------8-6-----------------------|
A:------------------------------------------------------------|
E:------------------------------------------------------------|

  voy a despertar...        x2
e:-0--------------2-----------|
B:-0--------------3---------2-|
G:-1--------------2---------2-|
D:-2--------------0---------2-|
A:-2------------------------0-|
E:-0--------------------------|

e:------|
B:------|
G:------|
D:------|
A:------|
E:-12\--|

  todo south park todo south park....
  pm......................................
e:-----------------------------------------------------2-2-2-2-2-|
B:------------------------------------------2-2-2-2-2--3-3-3-3-3-|
G:------------------------------------------2-2-2-2-2--2-2-2-2-2-|
D:------------------------------------------2-2-2-2-2--0-0-0-0-0-|
A:-4-4-4-4-4-4-4-5-5-5-5-5-5-5-6-6-6-6-6-6--0-0-0-0-0------------|
E:-2-2-2-2-2-2-2-3-3-3-3-3-3-3-4-4-4-4-4-4-----------------------|

  quiero vivir en south park 
e:----------------------------------------------------------|
B:----------------------------------------------2-2-2-2-2-2-|
G:-----------------------------------3-3-3-3-3--2-2-2-2-2-2-|
D:-----------------------------------4-4-4-4-4--2-2-2-2-2-2-|
A:-----------------------------------4-4-4-4-4--0-0-0-0-0-0-|
E:-----------------------------------2-2-2-2-2--------------|
  
   gt1
    quiero todo south park...
e:-2-2-2-2-2-2-2-2-2-2--------------|
B:-3-3-3-3-3-3-3-3-3-3--2-2-2-2-2-2-|
G:-2-2-2-2-2-2-2-2-2-2--2-2-2-2-2-2-|
D:-0-0-0-0-0-0-0-0-0-0--2-2-2-2-2-2-|
A:----------------------0-0-0-0-0-0-|
E:----------------------------------|
   gt2
e:------------------------------------------------------------|
B:------------------------------------------------------------|
G:-----------------------14~~~~~~~----------------------------|
D:------------------------------------------------------------|
A:------------------------------------------------------------|
E:------------------------------------------------------------|

  quiero vivir en south park
e:-2-2-2-2-2-2-2-2-2-2------------------|
B:-3-3-3-3-3-3-3-3-3-3------------------|
G:-2-2-2-2-2-2-2-2-2-2------------------|
D:-0-0-0-0-0-0-0-0-0-0--2-2-4-2-2-2-4-2-|
A:----------------------0-0-0-0-0-0-0-0-|
E:--------------------------------------|

             repeat
e:-----------------|
B:-----------------|
G:-----------------|
D:-2-2-4-2-2-2-4-2-|
A:-0-0-0-0-0-0-0-0-|
E:-----------------|

  solo
               -----------------------------
e:------------/-------------------------------------------|
B:-17-20-20bf/--20-20-20-20-20-20-20-20--20--20-17--------|
G:--------------------------------------------------19-17-|
D:--------------------------------------------------------|
A:--------------------------------------------------------|
E:--------------------------------------------------------|

e:-----------------------------------------------------------|
B:--------------------------------------------------17h20p17-|
G:----17----------17------------17----------17--19b----------|
D:-19----19-17-19-----19-17--19----19-17-19------------------|
A:-----------------------------------------------------------|
E:-----------------------------------------------------------|

e:------------------------------------------------------20bf--|
B:-----17h20p17-----17h20p17-----17h20p17-----17h20p17--------|
G:-19b----------19b----------19b----------19b-----------------|
D:------------------------------------------------------------|
A:------------------------------------------------------------|
E:------------------------------------------------------------|

e:-20-17-----------------------------------------|
B:-------20-17-----------------------------------|
G:-------------19-17-----------------------------|
D:-------------------19-17-----------------------|
A:-------------------------19-17-----------------|
E:-------------------------------20-17--17~~~~~~-|

                  x2
e:--------2---------|
B:--------3-----2---|
G:-4------2-----2---|
D:-5------0-----2---|
A:-5------------0---|
E:-3----------------|
            
Submit corrections


        Quiero Vivir En South Park  lessons Hard to play? Try these video lessons and learn fast Quiero Vivir En South Park  lessons
        
↑ Back to top | Tablatures and chords for acoustic guitar and electric guitar, ukulele, drums are parodies/interpretations of the original songs. You may use it for private study, scholarship, research or language learning purposes only