Home » S » Sound Of Music »

Sound Of Music - My Favorite Things Bass

Artists:  A B C D E F G H I J K L M N O P Q R S T U V W X Y Z # 

My Favorite Things Bass

(ver. 1) Click to play this song!
Sound Of Music
sound of music...isnt it nice

 My favorite things...
 G|-----------------------|-----------------------|---------------------|--------1-2-4-6-4---|
 D|-4-----6-----------6-4-|-4-----6-----------6-4-|-4-----6-----2-------|----2-4-----------3-|3X
 A|-------------3---------|-------------3---------|-------------------4-|3-4-----------------|
 E|-----------------------|-----------------------|---------------------|--------------------|

 G|-6-6-6\--4-4-4\--2-2-2-----|---------------2-4-2-4-|-2-6-7-6-7-6-2----|
 D|-------4-------2-------2-4-|-4-4-6-4-6-4-6---------|-------------2----|
 A|---------------------------|-----------------------|------------------|
 E|---------------------------|-----------------------|------------------|

DO NOT USE THIS TAB!! IT f**kING SUCKS!!! MY BROTHER RATED IT FIVE OUT OF PITTY!!!! go 
look at my Mr. Mustache bass tab...that one actually rocks.

comment or whatever...blah...rate please
            
Submit corrections

↑ Back to top | Tablatures and chords for acoustic guitar and electric guitar, ukulele, drums are parodies/interpretations of the original songs. You may use it for private study, scholarship, research or language learning purposes only