Home » S » Sound Of Music »

Sound Of Music - Edelweiss Tabs

Artists:  A B C D E F G H I J K L M N O P Q R S T U V W X Y Z # 

Edelweiss Tabs

(ver. 2) Click to play this song!
Sound Of Music
I have never done this before, I am taking a shot at it. I didn't like the other 
available here. I wanted a good base line/harmony. So here is what I came up with.


Capo 1st Fret

     Edelweiss,  Edelweiss, Every morning you greet me.
e--------0---7---5---0-----------------------------------------|
B----2-------------------3--2--2--2---3----5---7-----5---------|
G--------------------------------------------------------------|
D------------0---0-------0-------------------------------------|
A----0----------------------0-----0-------------5-----2--------|
E------------------------------------------------------------0-|

  Small and white, clean and bright. You look happy to meet me.
e-------0----7------5----0-------------------------------------|
B--2-------------------------3-------2----5---5---7-9--10---10-|
G--------------------------------------------------------------|
D------------0------0--------3---------------------------------|
A--0---------------------------------0--------2---5-7---0----0-|
E--------------------------------------------------------------|


   Blossom of snow may you bloom and grow, bloom and grow forever
e--7----------4-----2--0---------0---5-----2-----5---7----5--4--0-----|
B--5---5---5--5-----0------2---------------0-----2---5----3---------0-|
G------------------------------------7--------------------------------|
D----------------------2-------------------------------------2--------|
A---------------------------------------------------------------------|
E--------------------------5------------------------------------------|

  Edelweiss, Edelweiss, Bless my homeland forever.
e-----0--7---5--0--10---9-----0--0----2---4--5---5---|
B--2---------------6------------------4---3--3-0-2---|
G--------------------------------1-------------------|
D-----2--0---0---------------------------------------|
A--0--------------------0----------------------------|
E----------------------------------------------------|

you can repeat the whole thing again if desired.


Edelweiss, Edelweiss
Every morning you greet me
Small and white, clean and bright
You look happy to meet me

Blossom of snow may you bloom and grow
Bloom and grow forever

Edelweiss, Edelweiss
Bless my homeland forever
            
Submit corrections

↑ Back to top | Tablatures and chords for acoustic guitar and electric guitar, ukulele, drums are parodies/interpretations of the original songs. You may use it for private study, scholarship, research or language learning purposes only