» » »

Soulwax - Danger High Voltage Tabs

Artists:  A B C D E F G H I J K L M N O P Q R S T U V W X Y Z # 

Danger High Voltage Tabs

(ver. 1) Click to play this song!
Soulwax
 Rating:
4/5 (4 votes)
    Danger High Voltage lessons Tabs too difficult? Try these video lessons and learn fast
                
Nice easy song, not the best song either n it has a rather strange 
video!

E--------------------------------------------------------------------
B--------------------------------------------------------------------
G--------------------------------------------------------------------
D--------------------------------------------------------------------
A----9-9-9-9-9-9-9-9-12-12-12-12-12-12-12-12-14-14-14-14-14-14-14-14-
E----7-7-7-7-7-7-7-7-10-10-10-10-10-10-10-10-12-12-12-12-12-12-12-12-


E--------------------------------------------------------------------
B--------------------------------------------------------------------
G--------------------------------------------------------------------
D--------------------------------------------------------------------
A----9-9-9-9-7-7-9-9-------------------------------------------------
E----7-7-7-7-5-5-7-7-------------------------------------------------


There nice n simple add sum distrtion to it n u got the chorus too :)
            
Submit corrections

↑ Back to top | Tablatures and chords for acoustic guitar and electric guitar, ukulele, drums are parodies/interpretations of the original songs. You may use it for private study, scholarship, research or language learning purposes only