» » »

Son Volt - Catching On Tabs

Artists:  A B C D E F G H I J K L M N O P Q R S T U V W X Y Z # 

Catching On Tabs

(ver. 2) Click to play this song!
Son Volt
 Rating:
4/5 (4 votes)

 Catching On lessons Tabs too difficult? Try these video lessons and learn fast
 
                Cathing On

Music and words by Jay Farrar (Warner-Tamerlane Pub./Grain Elevator Songs)



   G/D                D                G/D                D

|--3-2-0---3-3-2-0---------------------3-2-0---3-3-2-0------------------|
|--------3---------3--5/7--7--5--7~----------3---------3--5/7-7~--3-2---|
|-----------------------------------------------------------------------|
|-----------------------------------------------------------------------|
|-----------------------------------------------------------------------|
|-----------------------------------------------------------------------|

   G/D                 D          G/D                  D
         p              h               p
|--3-2--3-2/5--3-2-----0-2~---2---3-2--3-2/5--3-2-----------------------|
|------------------0-3----------------------------0-3--3-----3-2~-------|
|-----------------------------------------------------------------------|
|-----------------------------------------------------------------------|
|-----------------------------------------------------------------------|
|-----------------------------------------------------------------------|

               G/D                    D
Can't find the reason, can't find the way,
               G/D              D               A    Asus4
Guess it's not you and me, only dogs have their day.
                G/D        
Another case of words that melt,
                       D          A     Asus4
It's not a question of right nightmares.

         C
In broad daylight,
       G             D
Season crash, season burn,
   A            C
Survive another turn.
        G                  D      A
Now I'm reaching out, it's true.
                  G/D              D     
And you don't see me, I'm catching on to you.
          G/D                  D     A 
You don't see me, I'm catching on to you.


Took a break to get that far,
Like the sound from a hundred dollar guitar
Bought from an old catalogue
Yesterday's dust and heartache.
'Cause the pieces fall like candy when you're young, medicine

When you're old,
There's no reason or rhyme,
Sidestepping around
On an elevator climb.
And you don't see me, I'm catching on to you.

Another jail, another burnout inside,
Skeleton low, left to die.
Take whatever lies ahead,
Good with the bad, and leave the rest.

And you don't see me, I'm catching on to you.
You don't see me, I'm catching on to you.
Catching on, catching on.
            
Submit corrections


        Catching On lessons Hard to play? Try these video lessons and learn fast Catching On lessons
        
↑ Back to top | Tablatures and chords for acoustic guitar and electric guitar, ukulele, drums are parodies/interpretations of the original songs. You may use it for private study, scholarship, research or language learning purposes only