Home » S » Sons And Daughters »

Sons And Daughters - Choked Tabs

Artists:  A B C D E F G H I J K L M N O P Q R S T U V W X Y Z # 

Choked Tabs

(ver. 1) Click to play this song!
Sons And Daughters
-------------------------------------------------------------------------------
                             CHOKED - Sons & Daughters
-------------------------------------------------------------------------------

Tuning: DADGBE

Verses (repeats continuously)

E|------------------------------------------------------|
B|------------------------------------------------------|
G|--------------------8---------------------------------|
D|-------------------------8—---10--101010--8—10--------|
A|-------------10-------------------------------10------|
D|--8—10------------------------------------------------|

E|------------------------------------------------------------|
B|------------------------------------------------------------|
G|---------------8--------------------------------------------|
D|--------------------8—---10--101010--8—10-------------------|
A|--------10--------------------------------------------------|
D|--10--------------------------------------------------------|

Chorus (repeats)

You really need a slide for this to work. I haven't marked the tab as such because every 
in the chorus should be a smooth slide. Listen to the song to get the rhythm.

E|-------------------------------------|
B|-------------------------------------|
G|-------------------------------------|
D|—17—171717--171717-1717-15—13—15--17-|
A|—17—171717--171717-1717-15-13—15--17-|
D|—17—171717--171717-1717-15—13—15--17-|

E|-------------------------------------|
B|-------------------------------------|
G|-------------------------------------|
D|—17—171717—171717----21-----17—17----|
A|—17—171717—171717----21-----17—17----|
D|—17—171717—171717----21-----17-17----|

Outro (repeats)

E|----------------------------------------|
B|----------------------------------------|
G|----------------------------------------|
D|--------------------55------------------|
A|-------1010—8—10—6------6--5------------|
D|—10-------------------------------------|


That's it! Just play each part as many times as the song requires.
            
Submit corrections

↑ Back to top | Tablatures and chords for acoustic guitar and electric guitar, ukulele, drums are parodies/interpretations of the original songs. You may use it for private study, scholarship, research or language learning purposes only