Home » S » Sonicflood »

Sonicflood - Holy One Tabs

Artists:  A B C D E F G H I J K L M N O P Q R S T U V W X Y Z # 

Holy One Tabs

(ver. 1) Click to play this song!
Sonicflood
-------------------------------------------------------------------------------
-------------------------------------------------------------------------------

Tuning: Standard
_______________________________________________________________________________
INTRO


Do this first part with a very thin tone.

 N.C.
e|--------------------------------------------|
B|--------------------------------------------|
G|-4—-4h5p4-4h5p4-7/--2--2-2-3-5—-2---5-------|
D|-5—-5-----5-----5/--3--3-3-3-3—-2---5---5---|
A|--------------------------------0---3---5---|
E|----------------------------------------3---|

Standard tone.

 N.C.
e|-----------------------------------------------------|
B|-----------------------------------------------------|
G|-4—-4h5p4-4h5p4-7/--2--2-2-3-5—-2---5----------------|
D|-5—-5-----5-----5/--3--3-3-3-3—-2---5---5------------|
A|--------------------------------0---3---5------------|
E|----------------------------------------3------------|
 |
 |
 |
 | G5                D5  F5  C5  A5  C5  G5
e|-----------------------------------------------------|
B|-----------------------------------------------------|
G|--------------------7-------5---2---5----------------|
D|-5------------------7---3---5---2---5---5------------|
A|-5------------------5---3---3---0---3---5------------|
E|-3----------------------1---------------3------------|
 |
 |
 |
 | N.C.
e|-----------------------------------------------------|
B|-/13-13-13~-----------------------------12b14r10-7~--|
G|------------------------17/12-14~--------------------|
D|------------------------------14~--------------------|
A|-----------------------------------------------------|
E|-----------------------------------------------------|


VERSE (acoustic)

  Em    A    D    F    C
e|-0----0----2----1----x----|
B|-0----2----3----1----1----|
G|-0----2----2----2----0----|
D|-2----2----0----3----2----|  repeat 2X
A|-2----0--------------3----|
E|-0------------------------|


CHORUS

N.C.
e|------------------------------------------------------|
B|------------------------------------------------------|
G|-4—-4h5p4-4h5p4-7/--2--2-2-3-5—-2---5-----------------|
D|-5—-5-----5-----5/--3--3-3-3-3—-2---5---5----5-5-3----| repeat 2X
A|--------------------------------0---3---5----5-5-3----|
E|----------------------------------------3----3-3-1----|
 |
 |
 |
 | G5                D5  F5  C5  A5  C5  G5        F5
e|-----------------------------------------------------|
B|-----------------------------------------------------|
G|--------------------7-------5---2---5----------------|
D|-5------------------7---3---5---2---5---5----5-5-3---| repeat 2X
A|-5------------------5---3---3---0---3---5----5-5-3---|
E|-3----------------------1---------------3----3-3-1---|


e|------------------------------|
B|------------------------------|
G|------5--------------5--------|
D|-3----5----5----3----5--------|
A|-3----3----5----3----3--------|
E|-1---------3----1-------------|


INTURLUDE

e|------------------------------------------------/
B|-11b13-11b13-11b13----10—-10-10-----------------/
G|-----------------------------------2----5—------/
D|----------------------------------2----5----5---/
A|---------------------------------0----3-----5---/
E|--------------------------------------------3---/
 |
 |
 |
 | N.C.
e|------------------------------------------------|
B|------------------------------------------------|
G|-4—-4h5p4-4h5p4-7/--2--2-2-3-5—---2----5--------|
D|-5—-5-----5-----5/--3--3-3-3-3—---2----5----5---|
A|----------------------------------0----3----5---|
E|--------------------------------------------3---|


VERSE (acoustic)

  Em    A    D    F    C
e|-0----0----2----1----x----|
B|-0----2----3----1----1----|
G|-0----2----2----2----0----|
D|-2----2----0----3----2----|  repeat 2X
A|-2----0--------------3----|
E|-0------------------------|


CHORUS

N.C.
e|------------------------------------------------------|
B|------------------------------------------------------|
G|-4—-4h5p4-4h5p4-7/--2--2-2-3-5—-2---5-----------------|
D|-5—-5-----5-----5/--3--3-3-3-3—-2---5---5----5-5-3----| repeat 2X
A|--------------------------------0---3---5----5-5-3----|
E|----------------------------------------3----3-3-1----|
 |
 |
 |
| G5                D5  A5  C5  A5  C5  G5        F5
e|-----------------------------------------------------|
B|-----------------------------------------------------|
G|--------------------7-------5---2---5----------------|
D|-5------------------7---3---5---2---5---5----5-5-3---| repeat 2X
A|-5------------------5---3---3---0---3---5----5-5-3---|
E|-3----------------------1---------------3----3-3-1---|

e|------------------------------|
B|------------------------------|
G|------5--------------5--------|
D|-3----5----5----3----5--------|
A|-3----3----5----3----3--------|
E|-1---------3----1-------------|


BRIDGE
e|--------------------------|
B|--------------------------|
G|--------------------------|
D|-0-------2h3--0-----------|
A|-------3-------------3----|
E|--------------------------|
 |
 |
 |
 |A#5    C5    A#5    C5
e|--------------------------|
B|--------------------------|
G|-3-----5------3------5----|
D|-3-----5------3------5----|
A|-1-----3------1------3----|
E|--------------------------|
 |
 |
 |
 |
e|--------------9b11—-11b13-|
B|-9b11—-11b13--------------|
G|--------------------------|
D|--------------------------|
A|--------------------------|
E|--------------------------|

e|--------------------------------------------------|
B|--------------------------------------------------|
G|-10-10-7----10-10-7----10-10-7---7-7-7-7-7-7-7-7--|
D|-10-10-7----10-10-7----10-10-7---7-7-7-7-7-7-7-7--|
A|-8--8—-5----8--8—-5----8--8--5---5-5-5-5-5-5-5-5--|
E|--------------------------------------------------|

CHORUS

N.C.
e|------------------------------------------------------|
B|------------------------------------------------------|
G|-4—-4h5p4-4h5p4-7/--2--2-2-3-5—-2---5-----------------|
D|-5—-5-----5-----5/--3--3-3-3-3—-2---5---5----5-5-3----| repeat 2X
A|--------------------------------0---3---5----5-5-3----|
E|----------------------------------------3----3-3-1----|
 |
 |
 |
| G5                D5  A5  C5  A5  C5  G5        F5
e|-----------------------------------------------------|
B|-----------------------------------------------------|
G|--------------------7-------5---2---5----------------|
D|-5------------------7---3---5---2---5---5----5-5-3---| repeat 2X
A|-5------------------5---3---3---0---3---5----5-5-3---|
E|-3----------------------1---------------3----3-3-1---|


e|------------------------------|
B|------------------------------|
G|------5--------------5--------|
D|-3----5----5----3----5--------|
A|-3----3----5----3----3--------|
E|-1---------3----1-------------|


BRIDGE/OUTRO

  F5   G5   F5   G5
e|---------------------|
B|---------------------|
G|---------------------|
D|-3----5----3----5----| keep repeating, at end gradually thin out tone.
A|-3----5----3----5----|
E|-1----3----1----3----|
            
Submit corrections

↑ Back to top | Tablatures and chords for acoustic guitar and electric guitar, ukulele, drums are parodies/interpretations of the original songs. You may use it for private study, scholarship, research or language learning purposes only