» » »

Sonata Arctica - Draw Me Tabs

Artists:  A B C D E F G H I J K L M N O P Q R S T U V W X Y Z # 

Draw Me Tabs

(ver. 1) Click to play this song!
Sonata Arctica
 Rating:
3.8/5 (5 votes)

 Draw Me lessons Tabs too difficult? Try these video lessons and learn fast
 
                DRAW ME -Sonata Arctica
Standard tuning, Capo 2

This is based off of, but not the same as, the way Jani plays it live. He plays it 
open, while I've capo'd the second fret.. still played in B minor


e|-----------------------|------------------------|------------------------|---------------------|
B|1-----0----------------|------------------------|-1-----0----------------|-----0--1--3-----1---|
G|---------2--0----------|-2-----0----------------|----------2--0----------|-0h2----------0-----0|
D|---2--------------3----|----0-----0--3-----2----|----2--------------3----|---------------------|
A|0----------------------|----------------3-----3-|-0----------------------|-----------3---------|
E|------------1--1-----1-|-3----------------------|-------------1--1-----1-|-3-------------------|

e|------------------------|------------------------|------------------------|-------------------||
B|-1-----0----------------|------------------------|-1-----0----------------|-------------------||
G|----------2--0----------|-2-----0----------------|----------2--0----------|-0-----0h2p0-------||
D|----2--------------3----|----0-----0--3-----2----|----2--------------3----|-------------------||
A|-0----------------------|----------------3-----3-|-0----------------------|----------------2--||
E|-------------1--1-----1-|-3----------------------|-------------1--1-----1-|-3--3-----------1--||


Am                                                      C          C/B
Blessed with an eye to see things as they are, will you draw me
Am                            C                         Dm        Dsus2   
Up there on the wall, looking down to us all, you never saw me
Em                   
I found a pen, and I outlined a life
Dm
You've never cried, I think I saw a tear in your eye

     Am        
Your eyes tell the tale, I will not ask again
      C                                                 C/B
Now I see what you've lost nothing is quite the same
       Am                       C     
By the love of my heart, cut my drawing in half
      Dm                             Dsus2
For I think I'm like you, should you draw me


G  F    Dm     F G
Waiting for my e-venfall


e|-----------------------|------------------------|------------------------|---------------------|
B|1-----0----------------|------------------------|-1-----0----------------|-----0--1--3-----1---|
G|---------2--0----------|-2-----0----------------|----------2--0----------|-0h2----------0-----0|
D|---2--------------3----|----0-----0--3-----2----|----2--------------3----|---------------------|
A|0----------------------|----------------3-----3-|-0----------------------|-----------3---------|
E|------------1--1-----1-|-3----------------------|-------------1--1-----1-|-3-------------------|

e|------------------------|------------------------|------------------------|-------------------||
B|-1-----0----------------|------------------------|-1-----0----------------|-------------------||
G|----------2--0----------|-2-----0----------------|----------2--0----------|-0-----0h2p0-------||
D|----2--------------3----|----0-----0--3-----2----|----2--------------3----|-------------------||
A|-0----------------------|----------------3-----3-|-0----------------------|----------------2--||
E|-------------1--1-----1-|-3----------------------|-------------1--1-----1-|-3--3-----------1--||



Am     
Farewell, my passion, you slowly turn pale
       C                                       C/B  
I will long for you warmth, made me feel safe
       Am                      C
I will not draw again, 'till I know it's my time
       Dm                          Dsus2
I have lived a long life, should I draw me


G  F      Dm      F    G            
Morning's here, I must have.. Failed

Am.. F.. G.. C.. C/B
Am.. F.. G..

Am      F        G.. C.. C/B  
..Someone save me


Am.. F.. G..
Am.. F.. G.. C.. C/B  
Am.. F.. G..
            
Submit corrections


        Draw Me lessons Hard to play? Try these video lessons and learn fast Draw Me lessons
        
↑ Back to top | Tablatures and chords for acoustic guitar and electric guitar, ukulele, drums are parodies/interpretations of the original songs. You may use it for private study, scholarship, research or language learning purposes only