Home » S » Something For Kate »

Something For Kate - 3 Dimensions Tabs

Artists:  A B C D E F G H I J K L M N O P Q R S T U V W X Y Z # 

3 Dimensions Tabs

(ver. 2) Click to play this song!
Something For Kate
                Something for Kate – 3 Dimensions (live)


I’m pretty sure it’s 100% correct but maybe the bridge is a touch off, but that’s all the rest is right. 


Intro x 1 
e|---------------------------------------------------------------------------|
B|---------------------------------------------------------------------------|
G|---------------------------------------------------------------------------|
D|-12-12-12-10-10-10-7-7-7-8-8-8-10-10-10------------------------------------|
A|-12-12-12-10-10-10-7-7-7-8-8-8-10-10-10------------------------------------|
E|-10-10-10--8--8--8-5-5-5-6-6-6-8--8--8-------------------------------------|

e|---------------------------------------------------------------------------|
B|----------------------------------6-6-6-6----------------------------------|
G|-------------------11-11-11-8-8-8-7-7-7-7----------------------------------|
D|-12-12-12-10-10-10-11-11-11-8-8-8-7-7-7-7----------------------------------|
A|-12-12-12-10-10-10--9--9--9-6-6-6-5-5-5-5----------------------------------|
E|-10-10-10--8--8--8---------------------------------------------------------|

Verse x 2 (guitar 2 plays the intro)
e|---------------------------------------------------------------------------|
B|-----------------------------------------------------------6-6-6-6---------|
G|-6-6-6-4-4-4-1-1-1-2-2-2-4-4-4--6-6-6-4-4-4-10-10-10-8-8-8-7-7-7-7---------|
D|-7-7-7-5-5-5-2-2-2-3-3-3-5-5-5--7-7-7-5-5-5-10-10-10-8-8-8-7-7-7-7---------|
A|-7-7-7-5-5-5-2-2-2-3-3-3-5-5-5--7-7-7-5-5-5----------------5-5-5-5---------|
E|-5-5-5-3-3-3-0-0-0-1-1-1-3-3-3--5-5-5-3-3-3-10-10-10-8-8-8-----------------|

Chorus x 3
e|-3-3-3-3-3-3--3-3-3-3-3-3--------------------------------------------------|
B|-3-3-3-3-3-3--3-3-3-3-3-3--1-1-1-1-1-1-------------------------------------|
G|-0-0-0-0-0-0--0-0-0-0-0-0--0-0-0-0-0-0-------------------------------------|
D|-0-0-0-0-0-0--2-2-2-2-2-2--2-2-2-2-0-0-------------------------------------|
A|-2-2-2-2-2-2--2-2-2-2-2-2--3-3-3-3-3-3-------------------------------------|
E|-3-3-3-3-3-3---------------3-3-3-3-3-3-------------------------------------|

Post Chorus x 1
e|-3-3-3-3-3-3--3-3-3-3-3-3--------------------------------------------------|
B|-3-3-3-3-3-3--3-3-3-3-3-3--------------------------------------------------|
G|-0-0-0-0-0-0--0-0-0-0-0-0--2-2-2-2-2-2-2-2---2-2---------------------------|
D|-0-0-0-0-0-0--2-2-2-2-2-2--3-3-3-3-3-3-3-3---3-3---------------------------|
A|-2-2-2-2-2-2--2-2-2-2-2-2--3-3-3-3-3-3-3-3---3-3---------------------------|
E|-3-3-3-3-3-3---------------1-1-1-1-1-1-1-1---1-1---------------------------|

Riff x 1 (distortion) (guitar 1 plays the verse)
e|---------------------------------------------------------------------------|
B|---------------------------------------------------------------------------|
G|---------------------------------------------------------------------------|
D|---------------------------------------------------------------------------|
A|-7p5--7p5--7/12~---7p5—7p5—7/12—7~\--7p5—7p5—7/12~---7p5—7p5—7/12—7~\------|
E|---------------------------------------------------------------------------|

Verse x 1 (guitar 1 on it’s own)

Riff 2 x 1 (distortion) (guitar 2 on it’s own)
e|---------------------------------------------------------------------------|
B|---------------------------------------------------------------------------|
G|---------------------------------------------------------------------------|
D|-x-x-x---------------------------------------------------------------------|
A|-x-x-x—-----7p5--7p5--7/12~---7p5-7p5--7-----------------------------------|
E|-x-x-x---------------------------------------------------------------------|

Chorus x 3

Post Chorus x 1

Bridge x 4 (guitar 1)
e|---------------------------------------------------------------------------|
B|--------------------4-4----------------------------------------------------|
G|-1-1/6------7-7-----6-6-------9--9\----------------------------------------|
D|-3-3/8------7-7-----6-6------10-10\----------------------------------------|
A|-3-3/8------5-5-----5-5------10-10\----------------------------------------|
E|-2-2/7------6-6---------------8--8\----------------------------------------|

Bridge x 4 (guitar 2)
e|---------------------------------------------------------------------------|
B|-------------------------------5-------------------------------------------|
G|-9----------9-7-----7-5------5---------------------------------------------|
D|---------------------------------------------------------------------------|
A|---------------------------------------------------------------------------|
E|---------------------------------------------------------------------------|

Post Bridge x 1
e|---------------------------------------------------------------------------|
B|---------------------------------------------------------------------------|
G|---------------------------------------------------------------------------|
D|-12-12-12-12--9-9-9-9--10-10-10-10----12-12-12-12--9-9-9-9--10-10-10-10----|
A|-12-12-12-12--9-9-9-9--10-10-10-10----12-12-12-12--9-9-9-9--10-10-10-10----|
E|-10-10-10-10--7-7-7-7---8--8--8--8----10-10-10-10--7-7-7-7---8--8--8--8----|

Finish (chorus) x 12
            
Submit corrections

↑ Back to top | Tablatures and chords for acoustic guitar and electric guitar, ukulele, drums are parodies/interpretations of the original songs. You may use it for private study, scholarship, research or language learning purposes only